ISO-10303-21;
HEADER;
/* Generated by software containing ST-Developer
 * from STEP Tools, Inc. (www.steptools.com) 
 */

FILE_DESCRIPTION(
/* description */ (''),
/* implementation_level */ '2;1');

FILE_NAME(
/* name */ 
'W:\\3D Filer og Pdf til vores katalog og hjemmeside\\Step files som s
kal ligges p\X\E5 hjemmeside\\03_TrustLink\\01_TrustLink connectors\\M
etal Shell\\B-Size\\Boot A-B for cable \X\F812-\X\F815mm.stp',
/* time_stamp */ '2021-03-11T11:23:27+01:00',
/* author */ ('sh'),
/* organization */ (''),
/* preprocessor_version */ 'ST-DEVELOPER v17.2',
/* originating_system */ 'Autodesk Inventor 2019',
/* authorisation */ '');

FILE_SCHEMA (('AUTOMOTIVE_DESIGN { 1 0 10303 214 3 1 1 }'));
ENDSEC;

DATA;
#10=MECHANICAL_DESIGN_GEOMETRIC_PRESENTATION_REPRESENTATION('',(#264,#265,
#266,#267,#268,#269,#270,#271,#272,#273,#274,#275,#276,#277,#278),#560);
#11=SHAPE_REPRESENTATION_RELATIONSHIP('SRR','None',#567,#12);
#12=ADVANCED_BREP_SHAPE_REPRESENTATION('',(#13),#559);
#13=MANIFOLD_SOLID_BREP('Solid2',#293);
#14=CYLINDRICAL_SURFACE('',#358,7.5);
#15=CYLINDRICAL_SURFACE('',#362,10.55);
#16=FACE_BOUND('',#56,.T.);
#17=FACE_BOUND('',#60,.T.);
#18=FACE_BOUND('',#63,.T.);
#19=FACE_BOUND('',#67,.T.);
#20=PLANE('',#332);
#21=PLANE('',#346);
#22=PLANE('',#353);
#23=PLANE('',#361);
#24=LINE('',#483,#29);
#25=LINE('',#503,#30);
#26=LINE('',#524,#31);
#27=LINE('',#550,#32);
#28=LINE('',#556,#33);
#29=VECTOR('',#379,10.5988077691513);
#30=VECTOR('',#402,13.802147139277);
#31=VECTOR('',#427,9.70945312173772);
#32=VECTOR('',#460,7.5);
#33=VECTOR('',#469,10.55);
#34=CONICAL_SURFACE('',#318,10.5988077691513,0.436332312998582);
#35=CONICAL_SURFACE('',#328,13.802147139277,0.0139626340159546);
#36=CONICAL_SURFACE('',#342,9.70945312173772,0.0139626340159545);
#37=FACE_OUTER_BOUND('',#51,.T.);
#38=FACE_OUTER_BOUND('',#52,.T.);
#39=FACE_OUTER_BOUND('',#53,.T.);
#40=FACE_OUTER_BOUND('',#54,.T.);
#41=FACE_OUTER_BOUND('',#55,.T.);
#42=FACE_OUTER_BOUND('',#57,.T.);
#43=FACE_OUTER_BOUND('',#58,.T.);
#44=FACE_OUTER_BOUND('',#59,.T.);
#45=FACE_OUTER_BOUND('',#61,.T.);
#46=FACE_OUTER_BOUND('',#62,.T.);
#47=FACE_OUTER_BOUND('',#64,.T.);
#48=FACE_OUTER_BOUND('',#65,.T.);
#49=FACE_OUTER_BOUND('',#66,.T.);
#50=FACE_OUTER_BOUND('',#68,.T.);
#51=EDGE_LOOP('',(#177,#178,#179,#180,#181));
#52=EDGE_LOOP('',(#182,#183,#184,#185,#186));
#53=EDGE_LOOP('',(#187,#188,#189,#190,#191,#192,#193));
#54=EDGE_LOOP('',(#194,#195,#196,#197,#198,#199,#200,#201));
#55=EDGE_LOOP('',(#202,#203));
#56=EDGE_LOOP('',(#204,#205));
#57=EDGE_LOOP('',(#206,#207,#208,#209,#210,#211,#212));
#58=EDGE_LOOP('',(#213,#214,#215,#216,#217,#218,#219,#220));
#59=EDGE_LOOP('',(#221,#222));
#60=EDGE_LOOP('',(#223,#224));
#61=EDGE_LOOP('',(#225,#226,#227,#228,#229,#230,#231));
#62=EDGE_LOOP('',(#232,#233));
#63=EDGE_LOOP('',(#234,#235));
#64=EDGE_LOOP('',(#236,#237,#238,#239,#240,#241,#242));
#65=EDGE_LOOP('',(#243,#244,#245,#246,#247,#248));
#66=EDGE_LOOP('',(#249,#250));
#67=EDGE_LOOP('',(#251,#252));
#68=EDGE_LOOP('',(#253,#254,#255,#256,#257,#258));
#69=CIRCLE('',#314,10.798107654256);
#70=CIRCLE('',#315,1.7);
#71=CIRCLE('',#316,10.55);
#72=CIRCLE('',#317,10.55);
#73=CIRCLE('',#319,9.54961553830251);
#74=CIRCLE('',#320,9.54961553830251);
#75=CIRCLE('',#322,14.0358414970669);
#76=CIRCLE('',#323,14.0358414970669);
#77=CIRCLE('',#324,1.);
#78=CIRCLE('',#325,13.0359389730576);
#79=CIRCLE('',#326,13.0359389730576);
#80=CIRCLE('',#327,14.0358414970669);
#81=CIRCLE('',#329,13.5680628585193);
#82=CIRCLE('',#330,13.5680628585193);
#83=CIRCLE('',#331,13.5680628585193);
#84=CIRCLE('',#333,10.55);
#85=CIRCLE('',#334,10.55);
#86=CIRCLE('',#336,8.51386605595599);
#87=CIRCLE('',#337,1.);
#88=CIRCLE('',#338,9.5137685799653);
#89=CIRCLE('',#339,9.5137685799653);
#90=CIRCLE('',#340,9.5137685799653);
#91=CIRCLE('',#341,8.51386605595599);
#92=CIRCLE('',#343,9.90513766351015);
#93=CIRCLE('',#344,9.90513766351015);
#94=CIRCLE('',#345,9.90513766351015);
#95=CIRCLE('',#347,7.5);
#96=CIRCLE('',#348,7.5);
#97=CIRCLE('',#350,10.9050401875195);
#98=CIRCLE('',#351,1.);
#99=CIRCLE('',#352,10.9050401875195);
#100=CIRCLE('',#354,12.56816033451);
#101=CIRCLE('',#355,12.56816033451);
#102=CIRCLE('',#357,1.);
#103=CIRCLE('',#359,7.5);
#104=CIRCLE('',#360,7.5);
#105=VERTEX_POINT('',#472);
#106=VERTEX_POINT('',#474);
#107=VERTEX_POINT('',#476);
#108=VERTEX_POINT('',#480);
#109=VERTEX_POINT('',#481);
#110=VERTEX_POINT('',#486);
#111=VERTEX_POINT('',#487);
#112=VERTEX_POINT('',#489);
#113=VERTEX_POINT('',#491);
#114=VERTEX_POINT('',#493);
#115=VERTEX_POINT('',#498);
#116=VERTEX_POINT('',#499);
#117=VERTEX_POINT('',#501);
#118=VERTEX_POINT('',#506);
#119=VERTEX_POINT('',#507);
#120=VERTEX_POINT('',#511);
#121=VERTEX_POINT('',#512);
#122=VERTEX_POINT('',#514);
#123=VERTEX_POINT('',#516);
#124=VERTEX_POINT('',#518);
#125=VERTEX_POINT('',#523);
#126=VERTEX_POINT('',#525);
#127=VERTEX_POINT('',#527);
#128=VERTEX_POINT('',#531);
#129=VERTEX_POINT('',#532);
#130=VERTEX_POINT('',#536);
#131=VERTEX_POINT('',#537);
#132=VERTEX_POINT('',#542);
#133=VERTEX_POINT('',#543);
#134=VERTEX_POINT('',#549);
#135=VERTEX_POINT('',#551);
#136=EDGE_CURVE('',#105,#105,#69,.T.);
#137=EDGE_CURVE('',#105,#106,#70,.T.);
#138=EDGE_CURVE('',#107,#106,#71,.T.);
#139=EDGE_CURVE('',#106,#107,#72,.T.);
#140=EDGE_CURVE('',#108,#109,#73,.T.);
#141=EDGE_CURVE('',#109,#105,#24,.T.);
#142=EDGE_CURVE('',#109,#108,#74,.T.);
#143=EDGE_CURVE('',#110,#111,#75,.T.);
#144=EDGE_CURVE('',#111,#112,#76,.T.);
#145=EDGE_CURVE('',#112,#113,#77,.T.);
#146=EDGE_CURVE('',#113,#114,#78,.T.);
#147=EDGE_CURVE('',#114,#113,#79,.T.);
#148=EDGE_CURVE('',#112,#110,#80,.T.);
#149=EDGE_CURVE('',#115,#116,#81,.T.);
#150=EDGE_CURVE('',#117,#115,#82,.T.);
#151=EDGE_CURVE('',#117,#111,#25,.T.);
#152=EDGE_CURVE('',#116,#117,#83,.T.);
#153=EDGE_CURVE('',#118,#119,#84,.T.);
#154=EDGE_CURVE('',#119,#118,#85,.T.);
#155=EDGE_CURVE('',#120,#121,#86,.T.);
#156=EDGE_CURVE('',#121,#122,#87,.T.);
#157=EDGE_CURVE('',#122,#123,#88,.T.);
#158=EDGE_CURVE('',#123,#124,#89,.T.);
#159=EDGE_CURVE('',#124,#122,#90,.T.);
#160=EDGE_CURVE('',#121,#120,#91,.T.);
#161=EDGE_CURVE('',#123,#125,#26,.T.);
#162=EDGE_CURVE('',#126,#125,#92,.T.);
#163=EDGE_CURVE('',#127,#126,#93,.T.);
#164=EDGE_CURVE('',#125,#127,#94,.T.);
#165=EDGE_CURVE('',#128,#129,#95,.T.);
#166=EDGE_CURVE('',#129,#128,#96,.T.);
#167=EDGE_CURVE('',#130,#131,#97,.T.);
#168=EDGE_CURVE('',#131,#127,#98,.T.);
#169=EDGE_CURVE('',#131,#130,#99,.T.);
#170=EDGE_CURVE('',#132,#133,#100,.T.);
#171=EDGE_CURVE('',#133,#132,#101,.T.);
#172=EDGE_CURVE('',#133,#116,#102,.T.);
#173=EDGE_CURVE('',#129,#134,#27,.T.);
#174=EDGE_CURVE('',#135,#134,#103,.T.);
#175=EDGE_CURVE('',#134,#135,#104,.T.);
#176=EDGE_CURVE('',#106,#119,#28,.T.);
#177=ORIENTED_EDGE('',*,*,#136,.T.);
#178=ORIENTED_EDGE('',*,*,#137,.T.);
#179=ORIENTED_EDGE('',*,*,#138,.F.);
#180=ORIENTED_EDGE('',*,*,#139,.F.);
#181=ORIENTED_EDGE('',*,*,#137,.F.);
#182=ORIENTED_EDGE('',*,*,#140,.T.);
#183=ORIENTED_EDGE('',*,*,#141,.T.);
#184=ORIENTED_EDGE('',*,*,#136,.F.);
#185=ORIENTED_EDGE('',*,*,#141,.F.);
#186=ORIENTED_EDGE('',*,*,#142,.T.);
#187=ORIENTED_EDGE('',*,*,#143,.T.);
#188=ORIENTED_EDGE('',*,*,#144,.T.);
#189=ORIENTED_EDGE('',*,*,#145,.T.);
#190=ORIENTED_EDGE('',*,*,#146,.T.);
#191=ORIENTED_EDGE('',*,*,#147,.T.);
#192=ORIENTED_EDGE('',*,*,#145,.F.);
#193=ORIENTED_EDGE('',*,*,#148,.T.);
#194=ORIENTED_EDGE('',*,*,#149,.F.);
#195=ORIENTED_EDGE('',*,*,#150,.F.);
#196=ORIENTED_EDGE('',*,*,#151,.T.);
#197=ORIENTED_EDGE('',*,*,#143,.F.);
#198=ORIENTED_EDGE('',*,*,#148,.F.);
#199=ORIENTED_EDGE('',*,*,#144,.F.);
#200=ORIENTED_EDGE('',*,*,#151,.F.);
#201=ORIENTED_EDGE('',*,*,#152,.F.);
#202=ORIENTED_EDGE('',*,*,#147,.F.);
#203=ORIENTED_EDGE('',*,*,#146,.F.);
#204=ORIENTED_EDGE('',*,*,#153,.T.);
#205=ORIENTED_EDGE('',*,*,#154,.T.);
#206=ORIENTED_EDGE('',*,*,#155,.T.);
#207=ORIENTED_EDGE('',*,*,#156,.T.);
#208=ORIENTED_EDGE('',*,*,#157,.T.);
#209=ORIENTED_EDGE('',*,*,#158,.T.);
#210=ORIENTED_EDGE('',*,*,#159,.T.);
#211=ORIENTED_EDGE('',*,*,#156,.F.);
#212=ORIENTED_EDGE('',*,*,#160,.T.);
#213=ORIENTED_EDGE('',*,*,#159,.F.);
#214=ORIENTED_EDGE('',*,*,#158,.F.);
#215=ORIENTED_EDGE('',*,*,#161,.T.);
#216=ORIENTED_EDGE('',*,*,#162,.F.);
#217=ORIENTED_EDGE('',*,*,#163,.F.);
#218=ORIENTED_EDGE('',*,*,#164,.F.);
#219=ORIENTED_EDGE('',*,*,#161,.F.);
#220=ORIENTED_EDGE('',*,*,#157,.F.);
#221=ORIENTED_EDGE('',*,*,#155,.F.);
#222=ORIENTED_EDGE('',*,*,#160,.F.);
#223=ORIENTED_EDGE('',*,*,#165,.F.);
#224=ORIENTED_EDGE('',*,*,#166,.F.);
#225=ORIENTED_EDGE('',*,*,#167,.T.);
#226=ORIENTED_EDGE('',*,*,#168,.T.);
#227=ORIENTED_EDGE('',*,*,#163,.T.);
#228=ORIENTED_EDGE('',*,*,#162,.T.);
#229=ORIENTED_EDGE('',*,*,#164,.T.);
#230=ORIENTED_EDGE('',*,*,#168,.F.);
#231=ORIENTED_EDGE('',*,*,#169,.T.);
#232=ORIENTED_EDGE('',*,*,#170,.F.);
#233=ORIENTED_EDGE('',*,*,#171,.F.);
#234=ORIENTED_EDGE('',*,*,#167,.F.);
#235=ORIENTED_EDGE('',*,*,#169,.F.);
#236=ORIENTED_EDGE('',*,*,#170,.T.);
#237=ORIENTED_EDGE('',*,*,#172,.T.);
#238=ORIENTED_EDGE('',*,*,#152,.T.);
#239=ORIENTED_EDGE('',*,*,#150,.T.);
#240=ORIENTED_EDGE('',*,*,#149,.T.);
#241=ORIENTED_EDGE('',*,*,#172,.F.);
#242=ORIENTED_EDGE('',*,*,#171,.T.);
#243=ORIENTED_EDGE('',*,*,#165,.T.);
#244=ORIENTED_EDGE('',*,*,#173,.T.);
#245=ORIENTED_EDGE('',*,*,#174,.F.);
#246=ORIENTED_EDGE('',*,*,#175,.F.);
#247=ORIENTED_EDGE('',*,*,#173,.F.);
#248=ORIENTED_EDGE('',*,*,#166,.T.);
#249=ORIENTED_EDGE('',*,*,#140,.F.);
#250=ORIENTED_EDGE('',*,*,#142,.F.);
#251=ORIENTED_EDGE('',*,*,#174,.T.);
#252=ORIENTED_EDGE('',*,*,#175,.T.);
#253=ORIENTED_EDGE('',*,*,#138,.T.);
#254=ORIENTED_EDGE('',*,*,#176,.T.);
#255=ORIENTED_EDGE('',*,*,#153,.F.);
#256=ORIENTED_EDGE('',*,*,#154,.F.);
#257=ORIENTED_EDGE('',*,*,#176,.F.);
#258=ORIENTED_EDGE('',*,*,#139,.T.);
#259=TOROIDAL_SURFACE('',#313,9.25738441629366,1.7);
#260=TOROIDAL_SURFACE('',#321,13.0359389730576,1.);
#261=TOROIDAL_SURFACE('',#335,8.51386605595599,1.);
#262=TOROIDAL_SURFACE('',#349,10.9050401875195,1.);
#263=TOROIDAL_SURFACE('',#356,12.56816033451,1.);
#264=STYLED_ITEM('',(#577),#279);
#265=STYLED_ITEM('',(#577),#280);
#266=STYLED_ITEM('',(#577),#281);
#267=STYLED_ITEM('',(#577),#282);
#268=STYLED_ITEM('',(#577),#283);
#269=STYLED_ITEM('',(#577),#284);
#270=STYLED_ITEM('',(#577),#285);
#271=STYLED_ITEM('',(#577),#286);
#272=STYLED_ITEM('',(#577),#287);
#273=STYLED_ITEM('',(#577),#288);
#274=STYLED_ITEM('',(#577),#289);
#275=STYLED_ITEM('',(#577),#290);
#276=STYLED_ITEM('',(#577),#291);
#277=STYLED_ITEM('',(#577),#292);
#278=STYLED_ITEM('',(#576),#13);
#279=ADVANCED_FACE('',(#37),#259,.F.);
#280=ADVANCED_FACE('',(#38),#34,.F.);
#281=ADVANCED_FACE('',(#39),#260,.T.);
#282=ADVANCED_FACE('',(#40),#35,.T.);
#283=ADVANCED_FACE('',(#41,#16),#20,.T.);
#284=ADVANCED_FACE('',(#42),#261,.T.);
#285=ADVANCED_FACE('',(#43),#36,.T.);
#286=ADVANCED_FACE('',(#44,#17),#21,.T.);
#287=ADVANCED_FACE('',(#45),#262,.F.);
#288=ADVANCED_FACE('',(#46,#18),#22,.T.);
#289=ADVANCED_FACE('',(#47),#263,.T.);
#290=ADVANCED_FACE('',(#48),#14,.F.);
#291=ADVANCED_FACE('',(#49,#19),#23,.T.);
#292=ADVANCED_FACE('',(#50),#15,.F.);
#293=CLOSED_SHELL('',(#279,#280,#281,#282,#283,#284,#285,#286,#287,#288,
#289,#290,#291,#292));
#294=DERIVED_UNIT_ELEMENT(#296,1.);
#295=DERIVED_UNIT_ELEMENT(#562,3.);
#296=(
MASS_UNIT()
NAMED_UNIT(*)
SI_UNIT($,.GRAM.)
);
#297=DERIVED_UNIT((#294,#295));
#298=MEASURE_REPRESENTATION_ITEM('density measure',
POSITIVE_RATIO_MEASURE(7.85),#297);
#299=PROPERTY_DEFINITION_REPRESENTATION(#304,#301);
#300=PROPERTY_DEFINITION_REPRESENTATION(#305,#302);
#301=REPRESENTATION('material name',(#303),#559);
#302=REPRESENTATION('density',(#298),#559);
#303=DESCRIPTIVE_REPRESENTATION_ITEM('S355','S355');
#304=PROPERTY_DEFINITION('material property','material name',#569);
#305=PROPERTY_DEFINITION('material property','density of part',#569);
#306=DATE_TIME_ROLE('creation_date');
#307=APPLIED_DATE_AND_TIME_ASSIGNMENT(#308,#306,(#569));
#308=DATE_AND_TIME(#309,#310);
#309=CALENDAR_DATE(2021,11,3);
#310=LOCAL_TIME(10,19,42.,#311);
#311=COORDINATED_UNIVERSAL_TIME_OFFSET(0,0,.BEHIND.);
#312=AXIS2_PLACEMENT_3D('placement',#470,#363,#364);
#313=AXIS2_PLACEMENT_3D('',#471,#365,#366);
#314=AXIS2_PLACEMENT_3D('',#473,#367,#368);
#315=AXIS2_PLACEMENT_3D('',#475,#369,#370);
#316=AXIS2_PLACEMENT_3D('',#477,#371,#372);
#317=AXIS2_PLACEMENT_3D('',#478,#373,#374);
#318=AXIS2_PLACEMENT_3D('',#479,#375,#376);
#319=AXIS2_PLACEMENT_3D('',#482,#377,#378);
#320=AXIS2_PLACEMENT_3D('',#484,#380,#381);
#321=AXIS2_PLACEMENT_3D('',#485,#382,#383);
#322=AXIS2_PLACEMENT_3D('',#488,#384,#385);
#323=AXIS2_PLACEMENT_3D('',#490,#386,#387);
#324=AXIS2_PLACEMENT_3D('',#492,#388,#389);
#325=AXIS2_PLACEMENT_3D('',#494,#390,#391);
#326=AXIS2_PLACEMENT_3D('',#495,#392,#393);
#327=AXIS2_PLACEMENT_3D('',#496,#394,#395);
#328=AXIS2_PLACEMENT_3D('',#497,#396,#397);
#329=AXIS2_PLACEMENT_3D('',#500,#398,#399);
#330=AXIS2_PLACEMENT_3D('',#502,#400,#401);
#331=AXIS2_PLACEMENT_3D('',#504,#403,#404);
#332=AXIS2_PLACEMENT_3D('',#505,#405,#406);
#333=AXIS2_PLACEMENT_3D('',#508,#407,#408);
#334=AXIS2_PLACEMENT_3D('',#509,#409,#410);
#335=AXIS2_PLACEMENT_3D('',#510,#411,#412);
#336=AXIS2_PLACEMENT_3D('',#513,#413,#414);
#337=AXIS2_PLACEMENT_3D('',#515,#415,#416);
#338=AXIS2_PLACEMENT_3D('',#517,#417,#418);
#339=AXIS2_PLACEMENT_3D('',#519,#419,#420);
#340=AXIS2_PLACEMENT_3D('',#520,#421,#422);
#341=AXIS2_PLACEMENT_3D('',#521,#423,#424);
#342=AXIS2_PLACEMENT_3D('',#522,#425,#426);
#343=AXIS2_PLACEMENT_3D('',#526,#428,#429);
#344=AXIS2_PLACEMENT_3D('',#528,#430,#431);
#345=AXIS2_PLACEMENT_3D('',#529,#432,#433);
#346=AXIS2_PLACEMENT_3D('',#530,#434,#435);
#347=AXIS2_PLACEMENT_3D('',#533,#436,#437);
#348=AXIS2_PLACEMENT_3D('',#534,#438,#439);
#349=AXIS2_PLACEMENT_3D('',#535,#440,#441);
#350=AXIS2_PLACEMENT_3D('',#538,#442,#443);
#351=AXIS2_PLACEMENT_3D('',#539,#444,#445);
#352=AXIS2_PLACEMENT_3D('',#540,#446,#447);
#353=AXIS2_PLACEMENT_3D('',#541,#448,#449);
#354=AXIS2_PLACEMENT_3D('',#544,#450,#451);
#355=AXIS2_PLACEMENT_3D('',#545,#452,#453);
#356=AXIS2_PLACEMENT_3D('',#546,#454,#455);
#357=AXIS2_PLACEMENT_3D('',#547,#456,#457);
#358=AXIS2_PLACEMENT_3D('',#548,#458,#459);
#359=AXIS2_PLACEMENT_3D('',#552,#461,#462);
#360=AXIS2_PLACEMENT_3D('',#553,#463,#464);
#361=AXIS2_PLACEMENT_3D('',#554,#465,#466);
#362=AXIS2_PLACEMENT_3D('',#555,#467,#468);
#363=DIRECTION('axis',(0.,0.,1.));
#364=DIRECTION('refdir',(1.,0.,0.));
#365=DIRECTION('center_axis',(1.,-2.43941745018142E-48,1.99193551306372E-32));
#366=DIRECTION('ref_axis',(0.,1.,1.22464679914735E-16));
#367=DIRECTION('center_axis',(1.,-2.43941745018142E-48,1.99193551306372E-32));
#368=DIRECTION('ref_axis',(0.,1.,1.22464679914735E-16));
#369=DIRECTION('center_axis',(1.99193551306372E-32,2.44929359829471E-16,
-1.));
#370=DIRECTION('ref_axis',(0.,-1.,-2.44929359829471E-16));
#371=DIRECTION('center_axis',(1.,0.,0.));
#372=DIRECTION('ref_axis',(0.,1.,0.));
#373=DIRECTION('center_axis',(1.,0.,0.));
#374=DIRECTION('ref_axis',(0.,1.,0.));
#375=DIRECTION('center_axis',(-1.,0.,0.));
#376=DIRECTION('ref_axis',(0.,1.,0.));
#377=DIRECTION('center_axis',(1.,0.,0.));
#378=DIRECTION('ref_axis',(0.,1.,0.));
#379=DIRECTION('',(-0.90630778703665,-0.422618261740699,-5.17558101501966E-17));
#380=DIRECTION('center_axis',(1.,0.,0.));
#381=DIRECTION('ref_axis',(0.,1.,0.));
#382=DIRECTION('center_axis',(1.,0.,0.));
#383=DIRECTION('ref_axis',(0.,0.,-1.));
#384=DIRECTION('center_axis',(-1.,0.,0.));
#385=DIRECTION('ref_axis',(0.,-1.,0.));
#386=DIRECTION('center_axis',(-1.,0.,0.));
#387=DIRECTION('ref_axis',(0.,-1.,0.));
#388=DIRECTION('center_axis',(0.,-1.,-1.22464679914735E-16));
#389=DIRECTION('ref_axis',(0.,-1.22464679914735E-16,1.));
#390=DIRECTION('center_axis',(1.,0.,0.));
#391=DIRECTION('ref_axis',(0.,-1.,1.22464679914735E-16));
#392=DIRECTION('center_axis',(1.,0.,0.));
#393=DIRECTION('ref_axis',(0.,-1.,1.22464679914735E-16));
#394=DIRECTION('center_axis',(-1.,0.,0.));
#395=DIRECTION('ref_axis',(0.,-1.,0.));
#396=DIRECTION('center_axis',(-1.,0.,0.));
#397=DIRECTION('ref_axis',(0.,1.,0.));
#398=DIRECTION('center_axis',(1.,0.,0.));
#399=DIRECTION('ref_axis',(0.,-1.,0.));
#400=DIRECTION('center_axis',(1.,0.,0.));
#401=DIRECTION('ref_axis',(0.,-1.,0.));
#402=DIRECTION('',(-0.999902524009304,-0.0139621803391452,-1.70987394614523E-18));
#403=DIRECTION('center_axis',(1.,0.,0.));
#404=DIRECTION('ref_axis',(0.,-1.,0.));
#405=DIRECTION('center_axis',(-1.,0.,0.));
#406=DIRECTION('ref_axis',(0.,0.,1.));
#407=DIRECTION('center_axis',(1.,0.,0.));
#408=DIRECTION('ref_axis',(0.,1.,0.));
#409=DIRECTION('center_axis',(1.,0.,0.));
#410=DIRECTION('ref_axis',(0.,1.,0.));
#411=DIRECTION('center_axis',(1.,0.,0.));
#412=DIRECTION('ref_axis',(0.,0.,-1.));
#413=DIRECTION('center_axis',(-1.,0.,0.));
#414=DIRECTION('ref_axis',(0.,-1.,1.22464679914735E-16));
#415=DIRECTION('center_axis',(0.,-1.,-1.22464679914735E-16));
#416=DIRECTION('ref_axis',(0.,-1.22464679914735E-16,1.));
#417=DIRECTION('center_axis',(1.,0.,0.));
#418=DIRECTION('ref_axis',(0.,-1.,0.));
#419=DIRECTION('center_axis',(1.,0.,0.));
#420=DIRECTION('ref_axis',(0.,-1.,0.));
#421=DIRECTION('center_axis',(1.,0.,0.));
#422=DIRECTION('ref_axis',(0.,-1.,0.));
#423=DIRECTION('center_axis',(-1.,0.,0.));
#424=DIRECTION('ref_axis',(0.,-1.,1.22464679914735E-16));
#425=DIRECTION('center_axis',(-1.,0.,0.));
#426=DIRECTION('ref_axis',(0.,1.,0.));
#427=DIRECTION('',(-0.999902524009304,-0.0139621803391451,-1.70987394614521E-18));
#428=DIRECTION('center_axis',(-1.,0.,0.));
#429=DIRECTION('ref_axis',(0.,-1.,0.));
#430=DIRECTION('center_axis',(-1.,0.,0.));
#431=DIRECTION('ref_axis',(0.,-1.,0.));
#432=DIRECTION('center_axis',(-1.,0.,0.));
#433=DIRECTION('ref_axis',(0.,-1.,0.));
#434=DIRECTION('center_axis',(1.,0.,0.));
#435=DIRECTION('ref_axis',(0.,0.,-1.));
#436=DIRECTION('center_axis',(1.,0.,0.));
#437=DIRECTION('ref_axis',(0.,1.,0.));
#438=DIRECTION('center_axis',(1.,0.,0.));
#439=DIRECTION('ref_axis',(0.,1.,0.));
#440=DIRECTION('center_axis',(1.,0.,0.));
#441=DIRECTION('ref_axis',(0.,0.,-1.));
#442=DIRECTION('center_axis',(1.,0.,0.));
#443=DIRECTION('ref_axis',(0.,-1.,1.22464679914735E-16));
#444=DIRECTION('center_axis',(0.,-1.,-1.22464679914735E-16));
#445=DIRECTION('ref_axis',(0.,-1.22464679914735E-16,1.));
#446=DIRECTION('center_axis',(1.,0.,0.));
#447=DIRECTION('ref_axis',(0.,-1.,1.22464679914735E-16));
#448=DIRECTION('center_axis',(1.,0.,0.));
#449=DIRECTION('ref_axis',(0.,0.,-1.));
#450=DIRECTION('center_axis',(-1.,0.,0.));
#451=DIRECTION('ref_axis',(0.,-1.,1.22464679914735E-16));
#452=DIRECTION('center_axis',(-1.,0.,0.));
#453=DIRECTION('ref_axis',(0.,-1.,1.22464679914735E-16));
#454=DIRECTION('center_axis',(1.,0.,0.));
#455=DIRECTION('ref_axis',(0.,0.,-1.));
#456=DIRECTION('center_axis',(0.,-1.,-1.22464679914735E-16));
#457=DIRECTION('ref_axis',(0.,-1.22464679914735E-16,1.));
#458=DIRECTION('center_axis',(1.,0.,0.));
#459=DIRECTION('ref_axis',(0.,1.,0.));
#460=DIRECTION('',(-1.,0.,0.));
#461=DIRECTION('center_axis',(1.,0.,0.));
#462=DIRECTION('ref_axis',(0.,1.,0.));
#463=DIRECTION('center_axis',(1.,0.,0.));
#464=DIRECTION('ref_axis',(0.,1.,0.));
#465=DIRECTION('center_axis',(-1.,0.,0.));
#466=DIRECTION('ref_axis',(0.,0.,1.));
#467=DIRECTION('center_axis',(1.,0.,0.));
#468=DIRECTION('ref_axis',(0.,1.,0.));
#469=DIRECTION('',(-1.,0.,0.));
#470=CARTESIAN_POINT('',(0.,0.,0.));
#471=CARTESIAN_POINT('Origin',(29.604148972177,0.,0.));
#472=CARTESIAN_POINT('',(30.3226000171362,-10.798107654256,-2.64477359512662E-15));
#473=CARTESIAN_POINT('Origin',(30.3226000171362,-1.75260201617452E-48,1.43110815085194E-32));
#474=CARTESIAN_POINT('',(28.5,-10.55,-2.58400474620092E-15));
#475=CARTESIAN_POINT('Origin',(29.604148972177,-9.25738441629366,-2.26740523877812E-15));
#476=CARTESIAN_POINT('',(28.5,10.55,0.));
#477=CARTESIAN_POINT('Origin',(28.5,0.,0.));
#478=CARTESIAN_POINT('Origin',(28.5,0.,0.));
#479=CARTESIAN_POINT('Origin',(30.75,0.,0.));
#480=CARTESIAN_POINT('',(33.,9.54961553830251,0.));
#481=CARTESIAN_POINT('',(33.,-9.54961553830251,-1.169490610207E-15));
#482=CARTESIAN_POINT('Origin',(33.,0.,0.));
#483=CARTESIAN_POINT('',(30.75,-10.5988077691513,-1.29797960092692E-15));
#484=CARTESIAN_POINT('Origin',(33.,0.,0.));
#485=CARTESIAN_POINT('Origin',(0.999999999999996,0.,0.));
#486=CARTESIAN_POINT('',(1.01396218033915,14.0358414970669,-3.43778967254452E-15));
#487=CARTESIAN_POINT('',(1.01396218033914,-14.0358414970669,-1.71889483627226E-15));
#488=CARTESIAN_POINT('Origin',(1.01396218033915,0.,-1.71889483627226E-15));
#489=CARTESIAN_POINT('',(1.01396218033915,-1.71889483627226E-15,14.0358414970669));
#490=CARTESIAN_POINT('Origin',(1.01396218033915,0.,-1.71889483627226E-15));
#491=CARTESIAN_POINT('',(0.,-1.59644209372353E-15,13.0359389730576));
#492=CARTESIAN_POINT('Origin',(0.999999999999996,-1.59644209372353E-15,
13.0359389730576));
#493=CARTESIAN_POINT('',(0.,13.0359389730576,0.));
#494=CARTESIAN_POINT('Origin',(0.,0.,0.));
#495=CARTESIAN_POINT('Origin',(0.,0.,0.));
#496=CARTESIAN_POINT('Origin',(1.01396218033915,0.,-1.71889483627226E-15));
#497=CARTESIAN_POINT('Origin',(17.75,0.,0.));
#498=CARTESIAN_POINT('',(34.5139621803391,13.5680628585193,0.));
#499=CARTESIAN_POINT('',(34.5139621803391,-1.66160847503158E-15,13.5680628585193));
#500=CARTESIAN_POINT('Origin',(34.5139621803391,0.,-1.66160847503158E-15));
#501=CARTESIAN_POINT('',(34.5139621803391,-13.5680628585193,-1.66160847503158E-15));
#502=CARTESIAN_POINT('Origin',(34.5139621803391,0.,-1.66160847503158E-15));
#503=CARTESIAN_POINT('',(17.75,-13.802147139277,-1.69027553154764E-15));
#504=CARTESIAN_POINT('Origin',(34.5139621803391,0.,-1.66160847503158E-15));
#505=CARTESIAN_POINT('Origin',(0.,12.3,0.));
#506=CARTESIAN_POINT('',(0.,10.55,0.));
#507=CARTESIAN_POINT('',(0.,-10.55,-1.29200237310046E-15));
#508=CARTESIAN_POINT('Origin',(0.,0.,0.));
#509=CARTESIAN_POINT('Origin',(0.,0.,0.));
#510=CARTESIAN_POINT('Origin',(64.5,0.,0.));
#511=CARTESIAN_POINT('',(65.5,8.51386605595599,-2.08529576275916E-15));
#512=CARTESIAN_POINT('',(65.5,-1.04264788137958E-15,8.51386605595599));
#513=CARTESIAN_POINT('Origin',(65.5,0.,0.));
#514=CARTESIAN_POINT('',(64.5139621803391,-1.16510062392832E-15,9.51376857996529));
#515=CARTESIAN_POINT('Origin',(64.5,-1.04264788137958E-15,8.51386605595599));
#516=CARTESIAN_POINT('',(64.5139621803391,-9.5137685799653,-1.16510062392832E-15));
#517=CARTESIAN_POINT('Origin',(64.5139621803391,0.,-1.16510062392832E-15));
#518=CARTESIAN_POINT('',(64.5139621803391,9.5137685799653,0.));
#519=CARTESIAN_POINT('Origin',(64.5139621803391,0.,-1.16510062392832E-15));
#520=CARTESIAN_POINT('Origin',(64.5139621803391,0.,-1.16510062392832E-15));
#521=CARTESIAN_POINT('Origin',(65.5,0.,0.));
#522=CARTESIAN_POINT('Origin',(50.5,0.,0.));
#523=CARTESIAN_POINT('',(36.4860378196609,-9.90513766351015,-1.21302951347316E-15));
#524=CARTESIAN_POINT('',(50.5,-9.70945312173772,-1.18906506870074E-15));
#525=CARTESIAN_POINT('',(36.4860378196609,9.90513766351015,-2.42605902694632E-15));
#526=CARTESIAN_POINT('Origin',(36.4860378196609,0.,-1.21302951347316E-15));
#527=CARTESIAN_POINT('',(36.4860378196609,-1.21302951347316E-15,9.90513766351015));
#528=CARTESIAN_POINT('Origin',(36.4860378196609,0.,-1.21302951347316E-15));
#529=CARTESIAN_POINT('Origin',(36.4860378196609,0.,-1.21302951347316E-15));
#530=CARTESIAN_POINT('Origin',(65.5,8.5,0.));
#531=CARTESIAN_POINT('',(65.5,7.5,0.));
#532=CARTESIAN_POINT('',(65.5,-7.5,-9.18485099360515E-16));
#533=CARTESIAN_POINT('Origin',(65.5,0.,0.));
#534=CARTESIAN_POINT('Origin',(65.5,0.,0.));
#535=CARTESIAN_POINT('Origin',(36.5,0.,0.));
#536=CARTESIAN_POINT('',(35.5,10.9050401875195,0.));
#537=CARTESIAN_POINT('',(35.5,-1.3354822560219E-15,10.9050401875195));
#538=CARTESIAN_POINT('Origin',(35.5,0.,0.));
#539=CARTESIAN_POINT('Origin',(36.5,-1.3354822560219E-15,10.9050401875195));
#540=CARTESIAN_POINT('Origin',(35.5,0.,0.));
#541=CARTESIAN_POINT('Origin',(35.5,11.7366002610147,0.));
#542=CARTESIAN_POINT('',(35.5,12.56816033451,-3.07831146496569E-15));
#543=CARTESIAN_POINT('',(35.5,-1.53915573248284E-15,12.56816033451));
#544=CARTESIAN_POINT('Origin',(35.5,0.,0.));
#545=CARTESIAN_POINT('Origin',(35.5,0.,0.));
#546=CARTESIAN_POINT('Origin',(34.5,0.,0.));
#547=CARTESIAN_POINT('Origin',(34.5,-1.53915573248284E-15,12.56816033451));
#548=CARTESIAN_POINT('Origin',(49.25,0.,0.));
#549=CARTESIAN_POINT('',(33.,-7.5,-9.18485099360515E-16));
#550=CARTESIAN_POINT('',(49.25,-7.5,-9.18485099360515E-16));
#551=CARTESIAN_POINT('',(33.,7.5,0.));
#552=CARTESIAN_POINT('Origin',(33.,0.,0.));
#553=CARTESIAN_POINT('Origin',(33.,0.,0.));
#554=CARTESIAN_POINT('Origin',(33.,8.52480776915125,0.));
#555=CARTESIAN_POINT('Origin',(14.25,0.,0.));
#556=CARTESIAN_POINT('',(14.25,-10.55,-1.29200237310046E-15));
#557=UNCERTAINTY_MEASURE_WITH_UNIT(LENGTH_MEASURE(0.01),#561,
'DISTANCE_ACCURACY_VALUE',
'Maximum model space distance between geometric entities at asserted c
onnectivities');
#558=UNCERTAINTY_MEASURE_WITH_UNIT(LENGTH_MEASURE(0.01),#561,
'DISTANCE_ACCURACY_VALUE',
'Maximum model space distance between geometric entities at asserted c
onnectivities');
#559=(
GEOMETRIC_REPRESENTATION_CONTEXT(3)
GLOBAL_UNCERTAINTY_ASSIGNED_CONTEXT((#557))
GLOBAL_UNIT_ASSIGNED_CONTEXT((#561,#563,#564))
REPRESENTATION_CONTEXT('','3D')
);
#560=(
GEOMETRIC_REPRESENTATION_CONTEXT(3)
GLOBAL_UNCERTAINTY_ASSIGNED_CONTEXT((#558))
GLOBAL_UNIT_ASSIGNED_CONTEXT((#561,#563,#564))
REPRESENTATION_CONTEXT('','3D')
);
#561=(
LENGTH_UNIT()
NAMED_UNIT(*)
SI_UNIT(.MILLI.,.METRE.)
);
#562=(
LENGTH_UNIT()
NAMED_UNIT(*)
SI_UNIT(.CENTI.,.METRE.)
);
#563=(
NAMED_UNIT(*)
PLANE_ANGLE_UNIT()
SI_UNIT($,.RADIAN.)
);
#564=(
NAMED_UNIT(*)
SI_UNIT($,.STERADIAN.)
SOLID_ANGLE_UNIT()
);
#565=SHAPE_DEFINITION_REPRESENTATION(#566,#567);
#566=PRODUCT_DEFINITION_SHAPE('',$,#569);
#567=SHAPE_REPRESENTATION('',(#312),#559);
#568=PRODUCT_DEFINITION_CONTEXT('part definition',#573,'design');
#569=PRODUCT_DEFINITION('Boot A-B for cable \X\F812-\X\F815mm',
'Boot A-B for cable \X\F812-\X\F815mm',#570,#568);
#570=PRODUCT_DEFINITION_FORMATION('A',$,#575);
#571=PRODUCT_RELATED_PRODUCT_CATEGORY('Boot A-B for cable \X\F812-\X\F8
15mm','Boot A-B for cable \X\F812-\X\F815mm',(#575));
#572=APPLICATION_PROTOCOL_DEFINITION('international standard',
'automotive_design',2009,#573);
#573=APPLICATION_CONTEXT(
'Core Data for Automotive Mechanical Design Process');
#574=PRODUCT_CONTEXT('part definition',#573,'mechanical');
#575=PRODUCT('Boot A-B for cable \X\F812-\X\F815mm',
'Boot A-B for cable \X\F812-\X\F815mm',$,(#574));
#576=PRESENTATION_STYLE_ASSIGNMENT((#578));
#577=PRESENTATION_STYLE_ASSIGNMENT((#579));
#578=SURFACE_STYLE_USAGE(.BOTH.,#584);
#579=SURFACE_STYLE_USAGE(.BOTH.,#585);
#580=SURFACE_STYLE_RENDERING_WITH_PROPERTIES($,#592,(#582));
#581=SURFACE_STYLE_RENDERING_WITH_PROPERTIES($,#593,(#583));
#582=SURFACE_STYLE_TRANSPARENT(0.);
#583=SURFACE_STYLE_TRANSPARENT(0.);
#584=SURFACE_SIDE_STYLE('',(#586,#580));
#585=SURFACE_SIDE_STYLE('',(#587,#581));
#586=SURFACE_STYLE_FILL_AREA(#588);
#587=SURFACE_STYLE_FILL_AREA(#589);
#588=FILL_AREA_STYLE('',(#590));
#589=FILL_AREA_STYLE('',(#591));
#590=FILL_AREA_STYLE_COLOUR('',#592);
#591=FILL_AREA_STYLE_COLOUR('',#593);
#592=COLOUR_RGB('',0.63921568627451,0.63921568627451,0.662745098039216);
#593=COLOUR_RGB('',0.258823529411765,0.258823529411765,0.258823529411765);
ENDSEC;
END-ISO-10303-21;
