ISO-10303-21;
HEADER;
/* Generated by software containing ST-Developer
 * from STEP Tools, Inc. (www.steptools.com) 
 */

FILE_DESCRIPTION(
/* description */ (''),
/* implementation_level */ '2;1');

FILE_NAME(
/* name */ 
'W:\\Step files som skal ligges p\X\E5 hjemmeside\\SubConn\\Circular\\
Overmould (OM)\\OMM1M.stp',
/* time_stamp */ '2016-01-28T15:39:13+01:00',
/* author */ ('sh'),
/* organization */ (''),
/* preprocessor_version */ 'ST-DEVELOPER v15.2',
/* originating_system */ 'Autodesk Inventor 2014',
/* authorisation */ '');

FILE_SCHEMA (('AUTOMOTIVE_DESIGN { 1 0 10303 214 3 1 1 }'));
ENDSEC;

DATA;
#10=SHAPE_REPRESENTATION_RELATIONSHIP('SRR','None',#260,#11);
#11=ADVANCED_BREP_SHAPE_REPRESENTATION($,(#142),#251);
#12=PLANE($,#149);
#13=PLANE($,#153);
#14=PLANE($,#165);
#15=PLANE($,#166);
#16=CYLINDRICAL_SURFACE($,#147,1.25);
#17=CYLINDRICAL_SURFACE($,#150,1.25);
#18=CYLINDRICAL_SURFACE($,#156,2.25);
#19=CYLINDRICAL_SURFACE($,#160,2.25);
#20=CYLINDRICAL_SURFACE($,#162,4.);
#21=FACE_BOUND($,#44,.T.);
#22=FACE_BOUND($,#46,.T.);
#23=FACE_BOUND($,#49,.T.);
#24=FACE_BOUND($,#52,.T.);
#25=FACE_BOUND($,#54,.T.);
#26=FACE_BOUND($,#56,.T.);
#27=FACE_BOUND($,#58,.T.);
#28=FACE_BOUND($,#60,.T.);
#29=FACE_BOUND($,#61,.T.);
#30=FACE_BOUND($,#62,.T.);
#31=FACE_BOUND($,#63,.T.);
#32=FACE_BOUND($,#64,.T.);
#33=FACE_OUTER_BOUND($,#43,.T.);
#34=FACE_OUTER_BOUND($,#45,.T.);
#35=FACE_OUTER_BOUND($,#47,.T.);
#36=FACE_OUTER_BOUND($,#48,.T.);
#37=FACE_OUTER_BOUND($,#50,.T.);
#38=FACE_OUTER_BOUND($,#51,.T.);
#39=FACE_OUTER_BOUND($,#53,.T.);
#40=FACE_OUTER_BOUND($,#55,.T.);
#41=FACE_OUTER_BOUND($,#57,.T.);
#42=FACE_OUTER_BOUND($,#59,.T.);
#43=EDGE_LOOP($,(#98));
#44=EDGE_LOOP($,(#99));
#45=EDGE_LOOP($,(#100));
#46=EDGE_LOOP($,(#101));
#47=EDGE_LOOP($,(#102));
#48=EDGE_LOOP($,(#103));
#49=EDGE_LOOP($,(#104));
#50=EDGE_LOOP($,(#105));
#51=EDGE_LOOP($,(#106));
#52=EDGE_LOOP($,(#107));
#53=EDGE_LOOP($,(#108));
#54=EDGE_LOOP($,(#109));
#55=EDGE_LOOP($,(#110));
#56=EDGE_LOOP($,(#111));
#57=EDGE_LOOP($,(#112));
#58=EDGE_LOOP($,(#113));
#59=EDGE_LOOP($,(#114));
#60=EDGE_LOOP($,(#115));
#61=EDGE_LOOP($,(#116));
#62=EDGE_LOOP($,(#117));
#63=EDGE_LOOP($,(#118));
#64=EDGE_LOOP($,(#119));
#65=CIRCLE($,#145,0.75);
#66=CIRCLE($,#146,1.25);
#67=CIRCLE($,#148,1.25);
#68=CIRCLE($,#151,1.25);
#69=CIRCLE($,#152,1.25);
#70=CIRCLE($,#155,2.25);
#71=CIRCLE($,#157,2.25);
#72=CIRCLE($,#159,2.25);
#73=CIRCLE($,#161,2.25);
#74=CIRCLE($,#163,4.);
#75=CIRCLE($,#164,4.);
#76=VERTEX_POINT($,#217);
#77=VERTEX_POINT($,#219);
#78=VERTEX_POINT($,#222);
#79=VERTEX_POINT($,#226);
#80=VERTEX_POINT($,#228);
#81=VERTEX_POINT($,#232);
#82=VERTEX_POINT($,#235);
#83=VERTEX_POINT($,#238);
#84=VERTEX_POINT($,#241);
#85=VERTEX_POINT($,#244);
#86=VERTEX_POINT($,#246);
#87=EDGE_CURVE($,#76,#76,#65,.T.);
#88=EDGE_CURVE($,#77,#77,#66,.T.);
#89=EDGE_CURVE($,#78,#78,#67,.T.);
#90=EDGE_CURVE($,#79,#79,#68,.T.);
#91=EDGE_CURVE($,#80,#80,#69,.T.);
#92=EDGE_CURVE($,#81,#81,#70,.T.);
#93=EDGE_CURVE($,#82,#82,#71,.T.);
#94=EDGE_CURVE($,#83,#83,#72,.T.);
#95=EDGE_CURVE($,#84,#84,#73,.T.);
#96=EDGE_CURVE($,#85,#85,#74,.T.);
#97=EDGE_CURVE($,#86,#86,#75,.T.);
#98=ORIENTED_EDGE($,*,*,#87,.T.);
#99=ORIENTED_EDGE($,*,*,#88,.T.);
#100=ORIENTED_EDGE($,*,*,#89,.F.);
#101=ORIENTED_EDGE($,*,*,#88,.F.);
#102=ORIENTED_EDGE($,*,*,#87,.F.);
#103=ORIENTED_EDGE($,*,*,#90,.T.);
#104=ORIENTED_EDGE($,*,*,#91,.F.);
#105=ORIENTED_EDGE($,*,*,#90,.F.);
#106=ORIENTED_EDGE($,*,*,#91,.T.);
#107=ORIENTED_EDGE($,*,*,#92,.T.);
#108=ORIENTED_EDGE($,*,*,#93,.F.);
#109=ORIENTED_EDGE($,*,*,#92,.F.);
#110=ORIENTED_EDGE($,*,*,#89,.T.);
#111=ORIENTED_EDGE($,*,*,#94,.T.);
#112=ORIENTED_EDGE($,*,*,#95,.F.);
#113=ORIENTED_EDGE($,*,*,#94,.F.);
#114=ORIENTED_EDGE($,*,*,#96,.T.);
#115=ORIENTED_EDGE($,*,*,#97,.F.);
#116=ORIENTED_EDGE($,*,*,#95,.T.);
#117=ORIENTED_EDGE($,*,*,#96,.F.);
#118=ORIENTED_EDGE($,*,*,#93,.T.);
#119=ORIENTED_EDGE($,*,*,#97,.T.);
#120=CONICAL_SURFACE($,#144,1.,45.0000000000001);
#121=CONICAL_SURFACE($,#154,1.75,45.);
#122=CONICAL_SURFACE($,#158,1.75,45.);
#123=STYLED_ITEM($,(#269),#129);
#124=STYLED_ITEM($,(#269),#130);
#125=STYLED_ITEM($,(#269),#131);
#126=STYLED_ITEM($,(#269),#132);
#127=STYLED_ITEM($,(#269),#133);
#128=STYLED_ITEM($,(#268),#142);
#129=ADVANCED_FACE($,(#33,#21),#120,.T.);
#130=ADVANCED_FACE($,(#34,#22),#16,.T.);
#131=ADVANCED_FACE($,(#35),#12,.F.);
#132=ADVANCED_FACE($,(#36,#23),#17,.T.);
#133=ADVANCED_FACE($,(#37),#13,.F.);
#134=ADVANCED_FACE($,(#38,#24),#121,.T.);
#135=ADVANCED_FACE($,(#39,#25),#18,.T.);
#136=ADVANCED_FACE($,(#40,#26),#122,.T.);
#137=ADVANCED_FACE($,(#41,#27),#19,.T.);
#138=ADVANCED_FACE($,(#42,#28),#20,.T.);
#139=ADVANCED_FACE($,(#29,#30),#14,.F.);
#140=ADVANCED_FACE($,(#31,#32),#15,.T.);
#141=CLOSED_SHELL($,(#129,#130,#131,#132,#133,#134,#135,#136,#137,#138,
#139,#140));
#142=MANIFOLD_SOLID_BREP('Solid2',#141);
#143=AXIS2_PLACEMENT_3D('placement',#215,#167,#168);
#144=AXIS2_PLACEMENT_3D($,#216,#169,#170);
#145=AXIS2_PLACEMENT_3D($,#218,#171,#172);
#146=AXIS2_PLACEMENT_3D($,#220,#173,#174);
#147=AXIS2_PLACEMENT_3D($,#221,#175,#176);
#148=AXIS2_PLACEMENT_3D($,#223,#177,#178);
#149=AXIS2_PLACEMENT_3D($,#224,#179,#180);
#150=AXIS2_PLACEMENT_3D($,#225,#181,#182);
#151=AXIS2_PLACEMENT_3D($,#227,#183,#184);
#152=AXIS2_PLACEMENT_3D($,#229,#185,#186);
#153=AXIS2_PLACEMENT_3D($,#230,#187,#188);
#154=AXIS2_PLACEMENT_3D($,#231,#189,#190);
#155=AXIS2_PLACEMENT_3D($,#233,#191,#192);
#156=AXIS2_PLACEMENT_3D($,#234,#193,#194);
#157=AXIS2_PLACEMENT_3D($,#236,#195,#196);
#158=AXIS2_PLACEMENT_3D($,#237,#197,#198);
#159=AXIS2_PLACEMENT_3D($,#239,#199,#200);
#160=AXIS2_PLACEMENT_3D($,#240,#201,#202);
#161=AXIS2_PLACEMENT_3D($,#242,#203,#204);
#162=AXIS2_PLACEMENT_3D($,#243,#205,#206);
#163=AXIS2_PLACEMENT_3D($,#245,#207,#208);
#164=AXIS2_PLACEMENT_3D($,#247,#209,#210);
#165=AXIS2_PLACEMENT_3D($,#248,#211,#212);
#166=AXIS2_PLACEMENT_3D($,#249,#213,#214);
#167=DIRECTION('axis',(0.,0.,1.));
#168=DIRECTION('refdir',(1.,0.,0.));
#169=DIRECTION('center_axis',(0.,0.,-1.));
#170=DIRECTION('ref_axis',(-1.,0.,0.));
#171=DIRECTION('center_axis',(0.,0.,-1.));
#172=DIRECTION('ref_axis',(-1.,0.,0.));
#173=DIRECTION('center_axis',(0.,0.,1.));
#174=DIRECTION('ref_axis',(-1.,0.,0.));
#175=DIRECTION('center_axis',(0.,0.,1.));
#176=DIRECTION('ref_axis',(-1.,0.,0.));
#177=DIRECTION('center_axis',(0.,0.,-1.));
#178=DIRECTION('ref_axis',(-1.,0.,0.));
#179=DIRECTION('center_axis',(0.,0.,-1.));
#180=DIRECTION('ref_axis',(-1.,0.,0.));
#181=DIRECTION('center_axis',(0.,0.,-1.));
#182=DIRECTION('ref_axis',(1.,0.,0.));
#183=DIRECTION('center_axis',(0.,0.,1.));
#184=DIRECTION('ref_axis',(1.,0.,0.));
#185=DIRECTION('center_axis',(0.,0.,1.));
#186=DIRECTION('ref_axis',(1.,0.,0.));
#187=DIRECTION('center_axis',(0.,0.,1.));
#188=DIRECTION('ref_axis',(1.,0.,0.));
#189=DIRECTION('center_axis',(0.,0.,1.));
#190=DIRECTION('ref_axis',(1.,0.,0.));
#191=DIRECTION('center_axis',(0.,0.,-1.));
#192=DIRECTION('ref_axis',(1.,0.,0.));
#193=DIRECTION('center_axis',(0.,0.,-1.));
#194=DIRECTION('ref_axis',(1.,0.,0.));
#195=DIRECTION('center_axis',(0.,0.,1.));
#196=DIRECTION('ref_axis',(1.,0.,0.));
#197=DIRECTION('center_axis',(0.,0.,-1.));
#198=DIRECTION('ref_axis',(-1.,0.,0.));
#199=DIRECTION('center_axis',(0.,0.,1.));
#200=DIRECTION('ref_axis',(-1.,0.,0.));
#201=DIRECTION('center_axis',(0.,0.,1.));
#202=DIRECTION('ref_axis',(-1.,0.,0.));
#203=DIRECTION('center_axis',(0.,0.,-1.));
#204=DIRECTION('ref_axis',(-1.,0.,0.));
#205=DIRECTION('center_axis',(0.,0.,1.));
#206=DIRECTION('ref_axis',(-1.,0.,0.));
#207=DIRECTION('center_axis',(0.,0.,-1.));
#208=DIRECTION('ref_axis',(-1.,0.,0.));
#209=DIRECTION('center_axis',(0.,0.,-1.));
#210=DIRECTION('ref_axis',(-1.,0.,0.));
#211=DIRECTION('center_axis',(0.,0.,-1.));
#212=DIRECTION('ref_axis',(-1.,0.,0.));
#213=DIRECTION('center_axis',(0.,0.,-1.));
#214=DIRECTION('ref_axis',(-1.,0.,0.));
#215=CARTESIAN_POINT('',(0.,0.,0.));
#216=CARTESIAN_POINT('Origin',(0.,0.,40.25));
#217=CARTESIAN_POINT('',(0.75,-9.18485099360515E-017,40.5));
#218=CARTESIAN_POINT('Origin',(0.,0.,40.5));
#219=CARTESIAN_POINT('',(1.25,1.53080849893419E-016,40.));
#220=CARTESIAN_POINT('Origin',(0.,0.,40.));
#221=CARTESIAN_POINT('Origin',(0.,0.,34.5));
#222=CARTESIAN_POINT('',(1.25,-1.53080849893419E-016,34.5));
#223=CARTESIAN_POINT('Origin',(0.,0.,34.5));
#224=CARTESIAN_POINT('Origin',(0.,0.,40.5));
#225=CARTESIAN_POINT('Origin',(0.,0.,-10.));
#226=CARTESIAN_POINT('',(-1.25,1.53080849893419E-016,-12.5));
#227=CARTESIAN_POINT('Origin',(0.,0.,-12.5));
#228=CARTESIAN_POINT('',(-1.25,-1.53080849893419E-016,-10.));
#229=CARTESIAN_POINT('Origin',(0.,0.,-10.));
#230=CARTESIAN_POINT('Origin',(0.,0.,-12.5));
#231=CARTESIAN_POINT('Origin',(0.,0.,-9.5));
#232=CARTESIAN_POINT('',(-2.25,2.75545529808154E-016,-9.));
#233=CARTESIAN_POINT('Origin',(0.,0.,-9.));
#234=CARTESIAN_POINT('Origin',(0.,0.,0.));
#235=CARTESIAN_POINT('',(-2.25,2.75545529808154E-016,0.));
#236=CARTESIAN_POINT('Origin',(0.,0.,0.));
#237=CARTESIAN_POINT('Origin',(0.,0.,34.));
#238=CARTESIAN_POINT('',(2.25,2.75545529808154E-016,33.5));
#239=CARTESIAN_POINT('Origin',(0.,0.,33.5));
#240=CARTESIAN_POINT('Origin',(0.,0.,22.));
#241=CARTESIAN_POINT('',(2.25,2.75545529808154E-016,22.));
#242=CARTESIAN_POINT('Origin',(0.,0.,22.));
#243=CARTESIAN_POINT('Origin',(0.,0.,0.));
#244=CARTESIAN_POINT('',(4.,4.89858719658941E-016,22.));
#245=CARTESIAN_POINT('Origin',(0.,0.,22.));
#246=CARTESIAN_POINT('',(4.,4.89858719658941E-016,0.));
#247=CARTESIAN_POINT('Origin',(0.,0.,0.));
#248=CARTESIAN_POINT('Origin',(0.,0.,22.));
#249=CARTESIAN_POINT('Origin',(0.,0.,0.));
#250=UNCERTAINTY_MEASURE_WITH_UNIT(LENGTH_MEASURE(0.01),#252,
'DISTANCE_ACCURACY_VALUE',
'Maximum model space distance between geometric entities at asserted c
onnectivities');
#251=(
GEOMETRIC_REPRESENTATION_CONTEXT(3)
GLOBAL_UNCERTAINTY_ASSIGNED_CONTEXT((#250))
GLOBAL_UNIT_ASSIGNED_CONTEXT((#252,#255,#253))
REPRESENTATION_CONTEXT('','3D')
);
#252=(
LENGTH_UNIT()
NAMED_UNIT(*)
SI_UNIT(.MILLI.,.METRE.)
);
#253=(
NAMED_UNIT(*)
SI_UNIT($,.STERADIAN.)
SOLID_ANGLE_UNIT()
);
#254=DIMENSIONAL_EXPONENTS(0.,0.,0.,0.,0.,0.,0.);
#255=(
CONVERSION_BASED_UNIT('degree',#257)
NAMED_UNIT(#254)
PLANE_ANGLE_UNIT()
);
#256=(
NAMED_UNIT(*)
PLANE_ANGLE_UNIT()
SI_UNIT($,.RADIAN.)
);
#257=PLANE_ANGLE_MEASURE_WITH_UNIT(PLANE_ANGLE_MEASURE(0.01745329252),#256);
#258=SHAPE_DEFINITION_REPRESENTATION(#259,#260);
#259=PRODUCT_DEFINITION_SHAPE('',$,#262);
#260=SHAPE_REPRESENTATION('',(#143),#251);
#261=PRODUCT_DEFINITION_CONTEXT('3D Mechanical Parts',#265,'design');
#262=PRODUCT_DEFINITION('OMM1M','OMM1M',#263,#261);
#263=PRODUCT_DEFINITION_FORMATION('',$,#267);
#264=APPLICATION_PROTOCOL_DEFINITION('international standard',
'automotive_design',2009,#265);
#265=APPLICATION_CONTEXT(
'Core Data for Automotive Mechanical Design Process');
#266=PRODUCT_CONTEXT('3D Mechanical Parts',#265,'mechanical');
#267=PRODUCT('OMM1M','OMM1M',$,(#266));
#268=PRESENTATION_STYLE_ASSIGNMENT((#270));
#269=PRESENTATION_STYLE_ASSIGNMENT((#271));
#270=SURFACE_STYLE_USAGE(.BOTH.,#272);
#271=SURFACE_STYLE_USAGE(.BOTH.,#273);
#272=SURFACE_SIDE_STYLE($,(#274));
#273=SURFACE_SIDE_STYLE($,(#275));
#274=SURFACE_STYLE_FILL_AREA(#276);
#275=SURFACE_STYLE_FILL_AREA(#277);
#276=FILL_AREA_STYLE($,(#278));
#277=FILL_AREA_STYLE($,(#279));
#278=FILL_AREA_STYLE_COLOUR($,#280);
#279=FILL_AREA_STYLE_COLOUR($,#281);
#280=COLOUR_RGB('',0.309803921568627,0.309803921568627,0.309803921568627);
#281=COLOUR_RGB('',0.780392156862745,0.568627450980392,0.113725490196078);
ENDSEC;
END-ISO-10303-21;
