ISO-10303-21;
HEADER;
/* Generated by software containing ST-Developer
 * from STEP Tools, Inc. (www.steptools.com) 
 */

FILE_DESCRIPTION(
/* description */ (''),
/* implementation_level */ '2;1');

FILE_NAME(
/* name */ 
'W:\\Step files Subconn som skal ligges p\X\E5 hjemmeside\\Ass\\Nut an
d washers\\SUBCONN BW 7_8.stp',
/* time_stamp */ '2015-09-28T15:49:52+02:00',
/* author */ ('sh'),
/* organization */ (''),
/* preprocessor_version */ 'ST-DEVELOPER v15.2',
/* originating_system */ 'Autodesk Inventor 2014',
/* authorisation */ '');

FILE_SCHEMA (('AUTOMOTIVE_DESIGN { 1 0 10303 214 3 1 1 }'));
ENDSEC;

DATA;
#10=SHAPE_REPRESENTATION_RELATIONSHIP('SRR','None',#197,#11);
#11=ADVANCED_BREP_SHAPE_REPRESENTATION($,(#110),#188);
#12=PLANE($,#126);
#13=PLANE($,#127);
#14=CYLINDRICAL_SURFACE($,#124,0.46875);
#15=CYLINDRICAL_SURFACE($,#125,0.875);
#16=FACE_BOUND($,#33,.T.);
#17=FACE_BOUND($,#35,.T.);
#18=FACE_BOUND($,#37,.T.);
#19=FACE_BOUND($,#39,.T.);
#20=FACE_BOUND($,#41,.T.);
#21=FACE_BOUND($,#43,.T.);
#22=FACE_BOUND($,#45,.T.);
#23=FACE_BOUND($,#47,.T.);
#24=FACE_OUTER_BOUND($,#32,.T.);
#25=FACE_OUTER_BOUND($,#34,.T.);
#26=FACE_OUTER_BOUND($,#36,.T.);
#27=FACE_OUTER_BOUND($,#38,.T.);
#28=FACE_OUTER_BOUND($,#40,.T.);
#29=FACE_OUTER_BOUND($,#42,.T.);
#30=FACE_OUTER_BOUND($,#44,.T.);
#31=FACE_OUTER_BOUND($,#46,.T.);
#32=EDGE_LOOP($,(#72));
#33=EDGE_LOOP($,(#73));
#34=EDGE_LOOP($,(#74));
#35=EDGE_LOOP($,(#75));
#36=EDGE_LOOP($,(#76));
#37=EDGE_LOOP($,(#77));
#38=EDGE_LOOP($,(#78));
#39=EDGE_LOOP($,(#79));
#40=EDGE_LOOP($,(#80));
#41=EDGE_LOOP($,(#81));
#42=EDGE_LOOP($,(#82));
#43=EDGE_LOOP($,(#83));
#44=EDGE_LOOP($,(#84));
#45=EDGE_LOOP($,(#85));
#46=EDGE_LOOP($,(#86));
#47=EDGE_LOOP($,(#87));
#48=CIRCLE($,#113,0.87);
#49=CIRCLE($,#114,0.875);
#50=CIRCLE($,#116,0.46875);
#51=CIRCLE($,#117,0.47375);
#52=CIRCLE($,#119,0.875);
#53=CIRCLE($,#120,0.87);
#54=CIRCLE($,#122,0.47375);
#55=CIRCLE($,#123,0.46875);
#56=VERTEX_POINT($,#164);
#57=VERTEX_POINT($,#166);
#58=VERTEX_POINT($,#169);
#59=VERTEX_POINT($,#171);
#60=VERTEX_POINT($,#174);
#61=VERTEX_POINT($,#176);
#62=VERTEX_POINT($,#179);
#63=VERTEX_POINT($,#181);
#64=EDGE_CURVE($,#56,#56,#48,.T.);
#65=EDGE_CURVE($,#57,#57,#49,.T.);
#66=EDGE_CURVE($,#58,#58,#50,.T.);
#67=EDGE_CURVE($,#59,#59,#51,.T.);
#68=EDGE_CURVE($,#60,#60,#52,.T.);
#69=EDGE_CURVE($,#61,#61,#53,.T.);
#70=EDGE_CURVE($,#62,#62,#54,.T.);
#71=EDGE_CURVE($,#63,#63,#55,.T.);
#72=ORIENTED_EDGE($,*,*,#64,.F.);
#73=ORIENTED_EDGE($,*,*,#65,.F.);
#74=ORIENTED_EDGE($,*,*,#66,.F.);
#75=ORIENTED_EDGE($,*,*,#67,.F.);
#76=ORIENTED_EDGE($,*,*,#68,.F.);
#77=ORIENTED_EDGE($,*,*,#69,.F.);
#78=ORIENTED_EDGE($,*,*,#70,.F.);
#79=ORIENTED_EDGE($,*,*,#71,.F.);
#80=ORIENTED_EDGE($,*,*,#66,.T.);
#81=ORIENTED_EDGE($,*,*,#71,.T.);
#82=ORIENTED_EDGE($,*,*,#65,.T.);
#83=ORIENTED_EDGE($,*,*,#68,.T.);
#84=ORIENTED_EDGE($,*,*,#64,.T.);
#85=ORIENTED_EDGE($,*,*,#67,.T.);
#86=ORIENTED_EDGE($,*,*,#69,.T.);
#87=ORIENTED_EDGE($,*,*,#70,.T.);
#88=TOROIDAL_SURFACE($,#112,0.87,0.005);
#89=TOROIDAL_SURFACE($,#115,0.47375,0.005);
#90=TOROIDAL_SURFACE($,#118,0.87,0.005);
#91=TOROIDAL_SURFACE($,#121,0.47375,0.005);
#92=STYLED_ITEM($,(#205),#101);
#93=STYLED_ITEM($,(#205),#102);
#94=STYLED_ITEM($,(#205),#103);
#95=STYLED_ITEM($,(#205),#104);
#96=STYLED_ITEM($,(#205),#105);
#97=STYLED_ITEM($,(#205),#106);
#98=STYLED_ITEM($,(#205),#107);
#99=STYLED_ITEM($,(#205),#108);
#100=STYLED_ITEM($,(#205),#110);
#101=ADVANCED_FACE($,(#24,#16),#88,.T.);
#102=ADVANCED_FACE($,(#25,#17),#89,.T.);
#103=ADVANCED_FACE($,(#26,#18),#90,.T.);
#104=ADVANCED_FACE($,(#27,#19),#91,.T.);
#105=ADVANCED_FACE($,(#28,#20),#14,.F.);
#106=ADVANCED_FACE($,(#29,#21),#15,.T.);
#107=ADVANCED_FACE($,(#30,#22),#12,.F.);
#108=ADVANCED_FACE($,(#31,#23),#13,.T.);
#109=CLOSED_SHELL($,(#101,#102,#103,#104,#105,#106,#107,#108));
#110=MANIFOLD_SOLID_BREP('Fillet1',#109);
#111=AXIS2_PLACEMENT_3D('placement',#162,#128,#129);
#112=AXIS2_PLACEMENT_3D($,#163,#130,#131);
#113=AXIS2_PLACEMENT_3D($,#165,#132,#133);
#114=AXIS2_PLACEMENT_3D($,#167,#134,#135);
#115=AXIS2_PLACEMENT_3D($,#168,#136,#137);
#116=AXIS2_PLACEMENT_3D($,#170,#138,#139);
#117=AXIS2_PLACEMENT_3D($,#172,#140,#141);
#118=AXIS2_PLACEMENT_3D($,#173,#142,#143);
#119=AXIS2_PLACEMENT_3D($,#175,#144,#145);
#120=AXIS2_PLACEMENT_3D($,#177,#146,#147);
#121=AXIS2_PLACEMENT_3D($,#178,#148,#149);
#122=AXIS2_PLACEMENT_3D($,#180,#150,#151);
#123=AXIS2_PLACEMENT_3D($,#182,#152,#153);
#124=AXIS2_PLACEMENT_3D($,#183,#154,#155);
#125=AXIS2_PLACEMENT_3D($,#184,#156,#157);
#126=AXIS2_PLACEMENT_3D($,#185,#158,#159);
#127=AXIS2_PLACEMENT_3D($,#186,#160,#161);
#128=DIRECTION('axis',(0.,0.,1.));
#129=DIRECTION('refdir',(1.,0.,0.));
#130=DIRECTION('center_axis',(0.,0.,1.));
#131=DIRECTION('ref_axis',(1.,0.,0.));
#132=DIRECTION('center_axis',(0.,0.,-1.));
#133=DIRECTION('ref_axis',(1.,0.,0.));
#134=DIRECTION('center_axis',(0.,0.,1.));
#135=DIRECTION('ref_axis',(1.,0.,0.));
#136=DIRECTION('center_axis',(0.,0.,1.));
#137=DIRECTION('ref_axis',(1.,0.,0.));
#138=DIRECTION('center_axis',(0.,0.,-1.));
#139=DIRECTION('ref_axis',(1.,0.,0.));
#140=DIRECTION('center_axis',(0.,0.,1.));
#141=DIRECTION('ref_axis',(1.,0.,0.));
#142=DIRECTION('center_axis',(0.,0.,1.));
#143=DIRECTION('ref_axis',(1.,0.,0.));
#144=DIRECTION('center_axis',(0.,0.,-1.));
#145=DIRECTION('ref_axis',(1.,0.,0.));
#146=DIRECTION('center_axis',(0.,0.,1.));
#147=DIRECTION('ref_axis',(1.,0.,0.));
#148=DIRECTION('center_axis',(0.,0.,1.));
#149=DIRECTION('ref_axis',(1.,0.,0.));
#150=DIRECTION('center_axis',(0.,0.,-1.));
#151=DIRECTION('ref_axis',(1.,0.,0.));
#152=DIRECTION('center_axis',(0.,0.,1.));
#153=DIRECTION('ref_axis',(1.,0.,0.));
#154=DIRECTION('center_axis',(0.,0.,1.));
#155=DIRECTION('ref_axis',(1.,0.,0.));
#156=DIRECTION('center_axis',(0.,0.,1.));
#157=DIRECTION('ref_axis',(1.,0.,0.));
#158=DIRECTION('center_axis',(0.,0.,1.));
#159=DIRECTION('ref_axis',(1.,0.,0.));
#160=DIRECTION('center_axis',(0.,0.,1.));
#161=DIRECTION('ref_axis',(1.,0.,0.));
#162=CARTESIAN_POINT('',(0.,0.,0.));
#163=CARTESIAN_POINT('Origin',(0.,0.,-0.135625));
#164=CARTESIAN_POINT('',(0.87,0.,-0.140625));
#165=CARTESIAN_POINT('Origin',(0.,0.,-0.140625));
#166=CARTESIAN_POINT('',(0.875,0.,-0.135625));
#167=CARTESIAN_POINT('Origin',(0.,0.,-0.135625));
#168=CARTESIAN_POINT('Origin',(0.,0.,-0.135625));
#169=CARTESIAN_POINT('',(0.46875,0.,-0.135625));
#170=CARTESIAN_POINT('Origin',(0.,0.,-0.135625));
#171=CARTESIAN_POINT('',(0.47375,0.,-0.140625));
#172=CARTESIAN_POINT('Origin',(0.,0.,-0.140625));
#173=CARTESIAN_POINT('Origin',(0.,0.,-0.005));
#174=CARTESIAN_POINT('',(0.875,0.,-0.005));
#175=CARTESIAN_POINT('Origin',(0.,0.,-0.005));
#176=CARTESIAN_POINT('',(0.87,0.,0.));
#177=CARTESIAN_POINT('Origin',(0.,0.,0.));
#178=CARTESIAN_POINT('Origin',(0.,0.,-0.005));
#179=CARTESIAN_POINT('',(0.47375,0.,1.0671281225251E-018));
#180=CARTESIAN_POINT('Origin',(0.,0.,0.));
#181=CARTESIAN_POINT('',(0.46875,0.,-0.005));
#182=CARTESIAN_POINT('Origin',(0.,0.,-0.005));
#183=CARTESIAN_POINT('Origin',(0.,0.,-0.140625));
#184=CARTESIAN_POINT('Origin',(0.,0.,-0.140625));
#185=CARTESIAN_POINT('Origin',(0.,0.,-0.140625));
#186=CARTESIAN_POINT('Origin',(0.,0.,0.));
#187=UNCERTAINTY_MEASURE_WITH_UNIT(LENGTH_MEASURE(0.000393700787401575),
#190,'DISTANCE_ACCURACY_VALUE',
'Maximum model space distance between geometric entities at asserted c
onnectivities');
#188=(
GEOMETRIC_REPRESENTATION_CONTEXT(3)
GLOBAL_UNCERTAINTY_ASSIGNED_CONTEXT((#187))
GLOBAL_UNIT_ASSIGNED_CONTEXT((#190,#194,#193))
REPRESENTATION_CONTEXT('','3D')
);
#189=DIMENSIONAL_EXPONENTS(1.,0.,0.,0.,0.,0.,0.);
#190=(
CONVERSION_BASED_UNIT('__CONSTANT UNIT inch',#192)
LENGTH_UNIT()
NAMED_UNIT(#189)
);
#191=(
LENGTH_UNIT()
NAMED_UNIT(*)
SI_UNIT(.MILLI.,.METRE.)
);
#192=LENGTH_MEASURE_WITH_UNIT(LENGTH_MEASURE(25.4),#191);
#193=(
NAMED_UNIT(*)
SI_UNIT($,.STERADIAN.)
SOLID_ANGLE_UNIT()
);
#194=(
NAMED_UNIT(*)
PLANE_ANGLE_UNIT()
SI_UNIT($,.RADIAN.)
);
#195=SHAPE_DEFINITION_REPRESENTATION(#196,#197);
#196=PRODUCT_DEFINITION_SHAPE('',$,#199);
#197=SHAPE_REPRESENTATION('',(#111),#188);
#198=PRODUCT_DEFINITION_CONTEXT('3D Mechanical Parts',#202,'design');
#199=PRODUCT_DEFINITION('SUBCONN BW 7_8','SUBCONN BW 7_8',#200,#198);
#200=PRODUCT_DEFINITION_FORMATION('',$,#204);
#201=APPLICATION_PROTOCOL_DEFINITION('international standard',
'automotive_design',2009,#202);
#202=APPLICATION_CONTEXT(
'Core Data for Automotive Mechanical Design Process');
#203=PRODUCT_CONTEXT('3D Mechanical Parts',#202,'mechanical');
#204=PRODUCT('SUBCONN BW 7_8','SUBCONN BW 7_8',$,(#203));
#205=PRESENTATION_STYLE_ASSIGNMENT((#206));
#206=SURFACE_STYLE_USAGE(.BOTH.,#207);
#207=SURFACE_SIDE_STYLE($,(#208));
#208=SURFACE_STYLE_FILL_AREA(#209);
#209=FILL_AREA_STYLE($,(#210));
#210=FILL_AREA_STYLE_COLOUR($,#211);
#211=COLOUR_RGB('',0.776470588235294,0.564705882352941,0.109803921568627);
ENDSEC;
END-ISO-10303-21;
