ISO-10303-21;
HEADER;
/* Generated by software containing ST-Developer
 * from STEP Tools, Inc. (www.steptools.com) 
 */

FILE_DESCRIPTION(
/* description */ ('LPB STRAP'),
/* implementation_level */ '2;1');

FILE_NAME(
/* name */ 'W:\\Step files Subconn 11-11-2014\\Ass\\Straps\\LPB STRAP.
stp',
/* time_stamp */ '2014-11-14T13:17:07+01:00',
/* author */ ('sh'),
/* organization */ (''),
/* preprocessor_version */ 'ST-DEVELOPER v15.2',
/* originating_system */ 'Autodesk Inventor 2014',
/* authorisation */ '');

FILE_SCHEMA (('AUTOMOTIVE_DESIGN { 1 0 10303 214 3 1 1 }'));
ENDSEC;

DATA;
#10=SHAPE_REPRESENTATION_RELATIONSHIP('SRR','None',#361,#11);
#11=ADVANCED_BREP_SHAPE_REPRESENTATION($,(#202),#352);
#12=STYLED_ITEM($,(#369),#202);
#13=LINE($,#329,#21);
#14=LINE($,#332,#22);
#15=LINE($,#339,#23);
#16=LINE($,#342,#24);
#17=LINE($,#344,#25);
#18=LINE($,#345,#26);
#19=LINE($,#347,#27);
#20=LINE($,#349,#28);
#21=VECTOR($,#270,2.);
#22=VECTOR($,#273,2.);
#23=VECTOR($,#282,2.);
#24=VECTOR($,#285,2.);
#25=VECTOR($,#288,137.960263159466);
#26=VECTOR($,#289,137.960263159466);
#27=VECTOR($,#292,137.960263159466);
#28=VECTOR($,#295,137.960263159466);
#29=PLANE($,#214);
#30=PLANE($,#223);
#31=PLANE($,#228);
#32=PLANE($,#229);
#33=PLANE($,#230);
#34=PLANE($,#231);
#35=TOROIDAL_SURFACE($,#210,10.,2.);
#36=TOROIDAL_SURFACE($,#216,8.,2.);
#37=TOROIDAL_SURFACE($,#217,10.,2.);
#38=TOROIDAL_SURFACE($,#225,8.,2.);
#39=FACE_BOUND($,#64,.T.);
#40=FACE_BOUND($,#66,.T.);
#41=FACE_BOUND($,#68,.T.);
#42=FACE_BOUND($,#69,.T.);
#43=FACE_BOUND($,#70,.T.);
#44=FACE_BOUND($,#72,.T.);
#45=FACE_BOUND($,#74,.T.);
#46=FACE_BOUND($,#76,.T.);
#47=FACE_BOUND($,#77,.T.);
#48=FACE_BOUND($,#79,.T.);
#49=FACE_BOUND($,#83,.T.);
#50=FACE_BOUND($,#84,.T.);
#51=FACE_BOUND($,#85,.T.);
#52=FACE_OUTER_BOUND($,#63,.T.);
#53=FACE_OUTER_BOUND($,#65,.T.);
#54=FACE_OUTER_BOUND($,#67,.T.);
#55=FACE_OUTER_BOUND($,#71,.T.);
#56=FACE_OUTER_BOUND($,#73,.T.);
#57=FACE_OUTER_BOUND($,#75,.T.);
#58=FACE_OUTER_BOUND($,#78,.T.);
#59=FACE_OUTER_BOUND($,#80,.T.);
#60=FACE_OUTER_BOUND($,#81,.T.);
#61=FACE_OUTER_BOUND($,#82,.T.);
#62=FACE_OUTER_BOUND($,#86,.T.);
#63=EDGE_LOOP($,(#139));
#64=EDGE_LOOP($,(#140));
#65=EDGE_LOOP($,(#141));
#66=EDGE_LOOP($,(#142));
#67=EDGE_LOOP($,(#143));
#68=EDGE_LOOP($,(#144,#145));
#69=EDGE_LOOP($,(#146));
#70=EDGE_LOOP($,(#147));
#71=EDGE_LOOP($,(#148));
#72=EDGE_LOOP($,(#149));
#73=EDGE_LOOP($,(#150));
#74=EDGE_LOOP($,(#151,#152));
#75=EDGE_LOOP($,(#153,#154,#155,#156));
#76=EDGE_LOOP($,(#157));
#77=EDGE_LOOP($,(#158));
#78=EDGE_LOOP($,(#159));
#79=EDGE_LOOP($,(#160));
#80=EDGE_LOOP($,(#161,#162,#163,#164));
#81=EDGE_LOOP($,(#165,#166,#167,#168));
#82=EDGE_LOOP($,(#169,#170,#171,#172));
#83=EDGE_LOOP($,(#173));
#84=EDGE_LOOP($,(#174));
#85=EDGE_LOOP($,(#175,#176,#177,#178));
#86=EDGE_LOOP($,(#179,#180,#181,#182));
#87=CIRCLE($,#205,6.);
#88=CIRCLE($,#206,6.);
#89=CIRCLE($,#208,6.);
#90=CIRCLE($,#209,6.);
#91=CIRCLE($,#211,10.);
#92=CIRCLE($,#212,12.);
#93=CIRCLE($,#213,12.);
#94=CIRCLE($,#215,8.);
#95=CIRCLE($,#218,10.);
#96=CIRCLE($,#219,12.);
#97=CIRCLE($,#220,12.);
#98=CIRCLE($,#222,12.);
#99=CIRCLE($,#224,8.);
#100=CIRCLE($,#227,12.);
#101=VERTEX_POINT($,#300);
#102=VERTEX_POINT($,#302);
#103=VERTEX_POINT($,#305);
#104=VERTEX_POINT($,#307);
#105=VERTEX_POINT($,#310);
#106=VERTEX_POINT($,#312);
#107=VERTEX_POINT($,#313);
#108=VERTEX_POINT($,#317);
#109=VERTEX_POINT($,#321);
#110=VERTEX_POINT($,#323);
#111=VERTEX_POINT($,#324);
#112=VERTEX_POINT($,#328);
#113=VERTEX_POINT($,#330);
#114=VERTEX_POINT($,#334);
#115=VERTEX_POINT($,#338);
#116=VERTEX_POINT($,#340);
#117=EDGE_CURVE($,#101,#101,#87,.T.);
#118=EDGE_CURVE($,#102,#102,#88,.T.);
#119=EDGE_CURVE($,#103,#103,#89,.T.);
#120=EDGE_CURVE($,#104,#104,#90,.T.);
#121=EDGE_CURVE($,#105,#105,#91,.T.);
#122=EDGE_CURVE($,#106,#107,#92,.T.);
#123=EDGE_CURVE($,#106,#107,#93,.T.);
#124=EDGE_CURVE($,#108,#108,#94,.T.);
#125=EDGE_CURVE($,#109,#109,#95,.T.);
#126=EDGE_CURVE($,#110,#111,#96,.T.);
#127=EDGE_CURVE($,#110,#111,#97,.T.);
#128=EDGE_CURVE($,#112,#110,#13,.T.);
#129=EDGE_CURVE($,#112,#113,#98,.T.);
#130=EDGE_CURVE($,#111,#113,#14,.T.);
#131=EDGE_CURVE($,#114,#114,#99,.T.);
#132=EDGE_CURVE($,#115,#106,#15,.T.);
#133=EDGE_CURVE($,#115,#116,#100,.T.);
#134=EDGE_CURVE($,#107,#116,#16,.T.);
#135=EDGE_CURVE($,#110,#107,#17,.T.);
#136=EDGE_CURVE($,#106,#111,#18,.T.);
#137=EDGE_CURVE($,#113,#115,#19,.T.);
#138=EDGE_CURVE($,#116,#112,#20,.T.);
#139=ORIENTED_EDGE($,*,*,#117,.F.);
#140=ORIENTED_EDGE($,*,*,#118,.T.);
#141=ORIENTED_EDGE($,*,*,#119,.F.);
#142=ORIENTED_EDGE($,*,*,#120,.T.);
#143=ORIENTED_EDGE($,*,*,#121,.T.);
#144=ORIENTED_EDGE($,*,*,#122,.T.);
#145=ORIENTED_EDGE($,*,*,#123,.F.);
#146=ORIENTED_EDGE($,*,*,#124,.F.);
#147=ORIENTED_EDGE($,*,*,#121,.F.);
#148=ORIENTED_EDGE($,*,*,#118,.F.);
#149=ORIENTED_EDGE($,*,*,#124,.T.);
#150=ORIENTED_EDGE($,*,*,#125,.T.);
#151=ORIENTED_EDGE($,*,*,#126,.F.);
#152=ORIENTED_EDGE($,*,*,#127,.T.);
#153=ORIENTED_EDGE($,*,*,#127,.F.);
#154=ORIENTED_EDGE($,*,*,#128,.F.);
#155=ORIENTED_EDGE($,*,*,#129,.T.);
#156=ORIENTED_EDGE($,*,*,#130,.F.);
#157=ORIENTED_EDGE($,*,*,#131,.F.);
#158=ORIENTED_EDGE($,*,*,#125,.F.);
#159=ORIENTED_EDGE($,*,*,#120,.F.);
#160=ORIENTED_EDGE($,*,*,#131,.T.);
#161=ORIENTED_EDGE($,*,*,#122,.F.);
#162=ORIENTED_EDGE($,*,*,#132,.F.);
#163=ORIENTED_EDGE($,*,*,#133,.T.);
#164=ORIENTED_EDGE($,*,*,#134,.F.);
#165=ORIENTED_EDGE($,*,*,#123,.T.);
#166=ORIENTED_EDGE($,*,*,#135,.F.);
#167=ORIENTED_EDGE($,*,*,#126,.T.);
#168=ORIENTED_EDGE($,*,*,#136,.F.);
#169=ORIENTED_EDGE($,*,*,#132,.T.);
#170=ORIENTED_EDGE($,*,*,#136,.T.);
#171=ORIENTED_EDGE($,*,*,#130,.T.);
#172=ORIENTED_EDGE($,*,*,#137,.T.);
#173=ORIENTED_EDGE($,*,*,#117,.T.);
#174=ORIENTED_EDGE($,*,*,#119,.T.);
#175=ORIENTED_EDGE($,*,*,#137,.F.);
#176=ORIENTED_EDGE($,*,*,#129,.F.);
#177=ORIENTED_EDGE($,*,*,#138,.F.);
#178=ORIENTED_EDGE($,*,*,#133,.F.);
#179=ORIENTED_EDGE($,*,*,#134,.T.);
#180=ORIENTED_EDGE($,*,*,#138,.T.);
#181=ORIENTED_EDGE($,*,*,#128,.T.);
#182=ORIENTED_EDGE($,*,*,#135,.T.);
#183=CYLINDRICAL_SURFACE($,#204,6.);
#184=CYLINDRICAL_SURFACE($,#207,6.);
#185=CYLINDRICAL_SURFACE($,#221,12.);
#186=CYLINDRICAL_SURFACE($,#226,12.);
#187=ADVANCED_FACE($,(#52,#39),#183,.F.);
#188=ADVANCED_FACE($,(#53,#40),#184,.F.);
#189=ADVANCED_FACE($,(#54,#41),#35,.T.);
#190=ADVANCED_FACE($,(#42,#43),#29,.F.);
#191=ADVANCED_FACE($,(#55,#44),#36,.T.);
#192=ADVANCED_FACE($,(#56,#45),#37,.T.);
#193=ADVANCED_FACE($,(#57),#185,.T.);
#194=ADVANCED_FACE($,(#46,#47),#30,.F.);
#195=ADVANCED_FACE($,(#58,#48),#38,.T.);
#196=ADVANCED_FACE($,(#59),#186,.T.);
#197=ADVANCED_FACE($,(#60),#31,.T.);
#198=ADVANCED_FACE($,(#61),#32,.T.);
#199=ADVANCED_FACE($,(#49,#50,#51),#33,.F.);
#200=ADVANCED_FACE($,(#62),#34,.T.);
#201=CLOSED_SHELL($,(#187,#188,#189,#190,#191,#192,#193,#194,#195,#196,
#197,#198,#199,#200));
#202=MANIFOLD_SOLID_BREP('Solid2',#201);
#203=AXIS2_PLACEMENT_3D('placement',#298,#232,#233);
#204=AXIS2_PLACEMENT_3D($,#299,#234,#235);
#205=AXIS2_PLACEMENT_3D($,#301,#236,#237);
#206=AXIS2_PLACEMENT_3D($,#303,#238,#239);
#207=AXIS2_PLACEMENT_3D($,#304,#240,#241);
#208=AXIS2_PLACEMENT_3D($,#306,#242,#243);
#209=AXIS2_PLACEMENT_3D($,#308,#244,#245);
#210=AXIS2_PLACEMENT_3D($,#309,#246,#247);
#211=AXIS2_PLACEMENT_3D($,#311,#248,#249);
#212=AXIS2_PLACEMENT_3D($,#314,#250,#251);
#213=AXIS2_PLACEMENT_3D($,#315,#252,#253);
#214=AXIS2_PLACEMENT_3D($,#316,#254,#255);
#215=AXIS2_PLACEMENT_3D($,#318,#256,#257);
#216=AXIS2_PLACEMENT_3D($,#319,#258,#259);
#217=AXIS2_PLACEMENT_3D($,#320,#260,#261);
#218=AXIS2_PLACEMENT_3D($,#322,#262,#263);
#219=AXIS2_PLACEMENT_3D($,#325,#264,#265);
#220=AXIS2_PLACEMENT_3D($,#326,#266,#267);
#221=AXIS2_PLACEMENT_3D($,#327,#268,#269);
#222=AXIS2_PLACEMENT_3D($,#331,#271,#272);
#223=AXIS2_PLACEMENT_3D($,#333,#274,#275);
#224=AXIS2_PLACEMENT_3D($,#335,#276,#277);
#225=AXIS2_PLACEMENT_3D($,#336,#278,#279);
#226=AXIS2_PLACEMENT_3D($,#337,#280,#281);
#227=AXIS2_PLACEMENT_3D($,#341,#283,#284);
#228=AXIS2_PLACEMENT_3D($,#343,#286,#287);
#229=AXIS2_PLACEMENT_3D($,#346,#290,#291);
#230=AXIS2_PLACEMENT_3D($,#348,#293,#294);
#231=AXIS2_PLACEMENT_3D($,#350,#296,#297);
#232=DIRECTION('axis',(0.,0.,1.));
#233=DIRECTION('refdir',(1.,0.,0.));
#234=DIRECTION('center_axis',(0.,0.,-1.));
#235=DIRECTION('ref_axis',(-1.,0.,0.));
#236=DIRECTION('center_axis',(0.,0.,1.));
#237=DIRECTION('ref_axis',(-1.,0.,0.));
#238=DIRECTION('center_axis',(0.,0.,1.));
#239=DIRECTION('ref_axis',(-1.,0.,0.));
#240=DIRECTION('center_axis',(0.,0.,-1.));
#241=DIRECTION('ref_axis',(-1.,0.,0.));
#242=DIRECTION('center_axis',(0.,0.,1.));
#243=DIRECTION('ref_axis',(-1.,0.,0.));
#244=DIRECTION('center_axis',(0.,0.,1.));
#245=DIRECTION('ref_axis',(-1.,0.,0.));
#246=DIRECTION('center_axis',(0.,0.,-1.));
#247=DIRECTION('ref_axis',(-1.,0.,0.));
#248=DIRECTION('center_axis',(0.,0.,-1.));
#249=DIRECTION('ref_axis',(-1.,0.,0.));
#250=DIRECTION('center_axis',(0.,0.,1.));
#251=DIRECTION('ref_axis',(-1.,0.,0.));
#252=DIRECTION('center_axis',(0.,0.,-1.));
#253=DIRECTION('ref_axis',(-1.,0.,0.));
#254=DIRECTION('center_axis',(0.,0.,-1.));
#255=DIRECTION('ref_axis',(-1.,0.,0.));
#256=DIRECTION('center_axis',(0.,0.,1.));
#257=DIRECTION('ref_axis',(-1.,0.,0.));
#258=DIRECTION('center_axis',(0.,0.,-1.));
#259=DIRECTION('ref_axis',(-1.,0.,0.));
#260=DIRECTION('center_axis',(0.,0.,-1.));
#261=DIRECTION('ref_axis',(-1.,0.,0.));
#262=DIRECTION('center_axis',(0.,0.,-1.));
#263=DIRECTION('ref_axis',(-1.,0.,0.));
#264=DIRECTION('center_axis',(0.,0.,-1.));
#265=DIRECTION('ref_axis',(-1.,0.,0.));
#266=DIRECTION('center_axis',(0.,0.,1.));
#267=DIRECTION('ref_axis',(-1.,0.,0.));
#268=DIRECTION('center_axis',(0.,0.,1.));
#269=DIRECTION('ref_axis',(-1.,0.,0.));
#270=DIRECTION($,(0.,0.,1.));
#271=DIRECTION('center_axis',(0.,0.,1.));
#272=DIRECTION('ref_axis',(-1.,0.,0.));
#273=DIRECTION($,(0.,0.,-1.));
#274=DIRECTION('center_axis',(0.,0.,-1.));
#275=DIRECTION('ref_axis',(-1.,0.,0.));
#276=DIRECTION('center_axis',(0.,0.,1.));
#277=DIRECTION('ref_axis',(-1.,0.,0.));
#278=DIRECTION('center_axis',(0.,0.,-1.));
#279=DIRECTION('ref_axis',(-1.,0.,0.));
#280=DIRECTION('center_axis',(0.,0.,1.));
#281=DIRECTION('ref_axis',(-1.,0.,0.));
#282=DIRECTION($,(0.,0.,1.));
#283=DIRECTION('center_axis',(0.,0.,1.));
#284=DIRECTION('ref_axis',(-1.,0.,0.));
#285=DIRECTION($,(0.,0.,-1.));
#286=DIRECTION('center_axis',(0.,0.,1.));
#287=DIRECTION('ref_axis',(1.,0.,0.));
#288=DIRECTION($,(1.,0.,0.));
#289=DIRECTION($,(-1.,0.,0.));
#290=DIRECTION('center_axis',(0.,-1.,0.));
#291=DIRECTION('ref_axis',(0.,0.,-1.));
#292=DIRECTION($,(1.,0.,0.));
#293=DIRECTION('center_axis',(0.,0.,1.));
#294=DIRECTION('ref_axis',(1.,0.,0.));
#295=DIRECTION($,(-1.,0.,0.));
#296=DIRECTION('center_axis',(0.,1.,0.));
#297=DIRECTION('ref_axis',(0.,0.,1.));
#298=CARTESIAN_POINT('',(0.,0.,0.));
#299=CARTESIAN_POINT('Origin',(80.,0.,1.));
#300=CARTESIAN_POINT('',(86.,7.34788079488412E-016,-1.));
#301=CARTESIAN_POINT('Origin',(80.,0.,-1.));
#302=CARTESIAN_POINT('',(86.,7.34788079488412E-016,1.));
#303=CARTESIAN_POINT('Origin',(80.,0.,1.));
#304=CARTESIAN_POINT('Origin',(-80.,0.,1.));
#305=CARTESIAN_POINT('',(-74.,7.34788079488412E-016,-1.));
#306=CARTESIAN_POINT('Origin',(-80.,0.,-1.));
#307=CARTESIAN_POINT('',(-74.,7.34788079488412E-016,1.));
#308=CARTESIAN_POINT('Origin',(-80.,0.,1.));
#309=CARTESIAN_POINT('Origin',(80.,0.,1.));
#310=CARTESIAN_POINT('',(90.,-1.22464679914735E-015,3.));
#311=CARTESIAN_POINT('Origin',(80.,0.,3.));
#312=CARTESIAN_POINT('',(68.9801315797329,-4.75,1.));
#313=CARTESIAN_POINT('',(68.9801315797329,4.75,1.));
#314=CARTESIAN_POINT('Origin',(80.,0.,1.));
#315=CARTESIAN_POINT('Origin',(80.,0.,1.));
#316=CARTESIAN_POINT('Origin',(80.,0.,3.));
#317=CARTESIAN_POINT('',(88.,9.79717439317883E-016,3.));
#318=CARTESIAN_POINT('Origin',(80.,0.,3.));
#319=CARTESIAN_POINT('Origin',(80.,0.,1.));
#320=CARTESIAN_POINT('Origin',(-80.,0.,1.));
#321=CARTESIAN_POINT('',(-70.,-1.22464679914735E-015,3.));
#322=CARTESIAN_POINT('Origin',(-80.,0.,3.));
#323=CARTESIAN_POINT('',(-68.9801315797329,4.75,1.));
#324=CARTESIAN_POINT('',(-68.9801315797329,-4.75,1.));
#325=CARTESIAN_POINT('Origin',(-80.,0.,1.));
#326=CARTESIAN_POINT('Origin',(-80.,0.,1.));
#327=CARTESIAN_POINT('Origin',(-80.,0.,0.));
#328=CARTESIAN_POINT('',(-68.9801315797329,4.75,-1.));
#329=CARTESIAN_POINT($,(-68.9801315797329,4.75,0.));
#330=CARTESIAN_POINT('',(-68.9801315797329,-4.75,-1.));
#331=CARTESIAN_POINT('Origin',(-80.,0.,-1.));
#332=CARTESIAN_POINT($,(-68.9801315797329,-4.75,0.));
#333=CARTESIAN_POINT('Origin',(-80.,0.,3.));
#334=CARTESIAN_POINT('',(-72.,9.79717439317883E-016,3.));
#335=CARTESIAN_POINT('Origin',(-80.,0.,3.));
#336=CARTESIAN_POINT('Origin',(-80.,0.,1.));
#337=CARTESIAN_POINT('Origin',(80.,0.,0.));
#338=CARTESIAN_POINT('',(68.9801315797329,-4.75,-1.));
#339=CARTESIAN_POINT($,(68.9801315797329,-4.75,0.));
#340=CARTESIAN_POINT('',(68.9801315797329,4.75,-1.));
#341=CARTESIAN_POINT('Origin',(80.,0.,-1.));
#342=CARTESIAN_POINT($,(68.9801315797329,4.75,0.));
#343=CARTESIAN_POINT('Origin',(0.,6.41357174456612E-018,1.));
#344=CARTESIAN_POINT($,(-70.,4.75,1.));
#345=CARTESIAN_POINT($,(70.,-4.75,1.));
#346=CARTESIAN_POINT('Origin',(70.,-4.75,0.));
#347=CARTESIAN_POINT($,(70.,-4.75,-1.));
#348=CARTESIAN_POINT('Origin',(0.,-6.41357174456612E-018,-1.));
#349=CARTESIAN_POINT($,(-70.,4.75,-1.));
#350=CARTESIAN_POINT('Origin',(-70.,4.75,0.));
#351=UNCERTAINTY_MEASURE_WITH_UNIT(LENGTH_MEASURE(0.01),#353,
'DISTANCE_ACCURACY_VALUE',
'Maximum model space distance between geometric entities at asserted c
onnectivities');
#352=(
GEOMETRIC_REPRESENTATION_CONTEXT(3)
GLOBAL_UNCERTAINTY_ASSIGNED_CONTEXT((#351))
GLOBAL_UNIT_ASSIGNED_CONTEXT((#353,#356,#354))
REPRESENTATION_CONTEXT('','3D')
);
#353=(
LENGTH_UNIT()
NAMED_UNIT(*)
SI_UNIT(.MILLI.,.METRE.)
);
#354=(
NAMED_UNIT(*)
SI_UNIT($,.STERADIAN.)
SOLID_ANGLE_UNIT()
);
#355=DIMENSIONAL_EXPONENTS(0.,0.,0.,0.,0.,0.,0.);
#356=(
CONVERSION_BASED_UNIT('degree',#358)
NAMED_UNIT(#355)
PLANE_ANGLE_UNIT()
);
#357=(
NAMED_UNIT(*)
PLANE_ANGLE_UNIT()
SI_UNIT($,.RADIAN.)
);
#358=PLANE_ANGLE_MEASURE_WITH_UNIT(PLANE_ANGLE_MEASURE(0.01745329252),#357);
#359=SHAPE_DEFINITION_REPRESENTATION(#360,#361);
#360=PRODUCT_DEFINITION_SHAPE('',$,#363);
#361=SHAPE_REPRESENTATION('',(#203),#352);
#362=PRODUCT_DEFINITION_CONTEXT('3D Mechanical Parts',#366,'design');
#363=PRODUCT_DEFINITION('LPB STRAP','LPB STRAP',#364,#362);
#364=PRODUCT_DEFINITION_FORMATION('',$,#368);
#365=APPLICATION_PROTOCOL_DEFINITION('international standard',
'automotive_design',2009,#366);
#366=APPLICATION_CONTEXT(
'Core Data for Automotive Mechanical Design Process');
#367=PRODUCT_CONTEXT('3D Mechanical Parts',#366,'mechanical');
#368=PRODUCT('LPB STRAP','LPB STRAP',$,(#367));
#369=PRESENTATION_STYLE_ASSIGNMENT((#370));
#370=SURFACE_STYLE_USAGE(.BOTH.,#371);
#371=SURFACE_SIDE_STYLE($,(#372));
#372=SURFACE_STYLE_FILL_AREA(#373);
#373=FILL_AREA_STYLE($,(#374));
#374=FILL_AREA_STYLE_COLOUR($,#375);
#375=COLOUR_RGB('',0.309803921568627,0.309803921568627,0.309803921568627);
ENDSEC;
END-ISO-10303-21;
