ISO-10303-21;
HEADER;
/* Generated by software containing ST-Developer
 * from STEP Tools, Inc. (www.steptools.com) 
 */

FILE_DESCRIPTION(
/* description */ (''),
/* implementation_level */ '2;1');

FILE_NAME(
/* name */ 'W:\\Step files Subconn 11-11-2014\\Ass\\Snap rings\\DLSA.s
tp',
/* time_stamp */ '2014-11-14T13:07:07+01:00',
/* author */ ('sh'),
/* organization */ (''),
/* preprocessor_version */ 'ST-DEVELOPER v15.2',
/* originating_system */ 'Autodesk Inventor 2014',
/* authorisation */ '');

FILE_SCHEMA (('AUTOMOTIVE_DESIGN { 1 0 10303 214 3 1 1 }'));
ENDSEC;

DATA;
#10=SHAPE_REPRESENTATION_RELATIONSHIP('SRR','None',#285,#11);
#11=ADVANCED_BREP_SHAPE_REPRESENTATION($,(#160),#276);
#12=STYLED_ITEM($,(#293),#160);
#13=FACE_BOUND($,#35,.T.);
#14=FACE_BOUND($,#39,.T.);
#15=FACE_BOUND($,#40,.T.);
#16=FACE_BOUND($,#41,.T.);
#17=PLANE($,#165);
#18=PLANE($,#169);
#19=PLANE($,#175);
#20=PLANE($,#176);
#21=PLANE($,#180);
#22=FACE_OUTER_BOUND($,#30,.T.);
#23=FACE_OUTER_BOUND($,#31,.T.);
#24=FACE_OUTER_BOUND($,#32,.T.);
#25=FACE_OUTER_BOUND($,#33,.T.);
#26=FACE_OUTER_BOUND($,#34,.T.);
#27=FACE_OUTER_BOUND($,#36,.T.);
#28=FACE_OUTER_BOUND($,#37,.T.);
#29=FACE_OUTER_BOUND($,#38,.T.);
#30=EDGE_LOOP($,(#106,#107,#108,#109));
#31=EDGE_LOOP($,(#110,#111,#112,#113,#114,#115));
#32=EDGE_LOOP($,(#116,#117,#118,#119));
#33=EDGE_LOOP($,(#120,#121,#122,#123));
#34=EDGE_LOOP($,(#124,#125,#126,#127));
#35=EDGE_LOOP($,(#128));
#36=EDGE_LOOP($,(#129,#130,#131,#132));
#37=EDGE_LOOP($,(#133,#134,#135,#136,#137,#138));
#38=EDGE_LOOP($,(#139,#140,#141,#142));
#39=EDGE_LOOP($,(#143));
#40=EDGE_LOOP($,(#144));
#41=EDGE_LOOP($,(#145));
#42=LINE($,#237,#52);
#43=LINE($,#240,#53);
#44=LINE($,#243,#54);
#45=LINE($,#249,#55);
#46=LINE($,#253,#56);
#47=LINE($,#254,#57);
#48=LINE($,#258,#58);
#49=LINE($,#262,#59);
#50=LINE($,#267,#60);
#51=LINE($,#268,#61);
#52=VECTOR($,#187,0.6);
#53=VECTOR($,#190,0.6);
#54=VECTOR($,#193,2.56769159847194);
#55=VECTOR($,#198,2.175);
#56=VECTOR($,#203,2.56769159847194);
#57=VECTOR($,#204,0.6);
#58=VECTOR($,#209,0.6);
#59=VECTOR($,#214,0.6);
#60=VECTOR($,#219,2.175);
#61=VECTOR($,#220,0.6);
#62=CIRCLE($,#163,0.2);
#63=CIRCLE($,#164,0.2);
#64=CIRCLE($,#166,0.2);
#65=CIRCLE($,#167,11.6);
#66=CIRCLE($,#168,13.775);
#67=CIRCLE($,#171,0.2);
#68=CIRCLE($,#173,11.6);
#69=CIRCLE($,#174,11.6);
#70=CIRCLE($,#177,13.775);
#71=CIRCLE($,#179,13.775);
#72=VERTEX_POINT($,#233);
#73=VERTEX_POINT($,#234);
#74=VERTEX_POINT($,#236);
#75=VERTEX_POINT($,#238);
#76=VERTEX_POINT($,#242);
#77=VERTEX_POINT($,#244);
#78=VERTEX_POINT($,#246);
#79=VERTEX_POINT($,#248);
#80=VERTEX_POINT($,#252);
#81=VERTEX_POINT($,#256);
#82=VERTEX_POINT($,#260);
#83=VERTEX_POINT($,#263);
#84=VERTEX_POINT($,#266);
#85=VERTEX_POINT($,#272);
#86=EDGE_CURVE($,#72,#73,#62,.T.);
#87=EDGE_CURVE($,#73,#74,#42,.T.);
#88=EDGE_CURVE($,#74,#75,#63,.F.);
#89=EDGE_CURVE($,#75,#72,#43,.T.);
#90=EDGE_CURVE($,#72,#76,#44,.T.);
#91=EDGE_CURVE($,#77,#76,#64,.T.);
#92=EDGE_CURVE($,#77,#78,#65,.T.);
#93=EDGE_CURVE($,#78,#79,#45,.T.);
#94=EDGE_CURVE($,#73,#79,#66,.T.);
#95=EDGE_CURVE($,#80,#75,#46,.T.);
#96=EDGE_CURVE($,#76,#80,#47,.T.);
#97=EDGE_CURVE($,#80,#81,#67,.F.);
#98=EDGE_CURVE($,#81,#77,#48,.T.);
#99=EDGE_CURVE($,#81,#82,#68,.T.);
#100=EDGE_CURVE($,#82,#78,#49,.T.);
#101=EDGE_CURVE($,#83,#83,#69,.T.);
#102=EDGE_CURVE($,#84,#82,#50,.T.);
#103=EDGE_CURVE($,#79,#84,#51,.T.);
#104=EDGE_CURVE($,#84,#74,#70,.T.);
#105=EDGE_CURVE($,#85,#85,#71,.T.);
#106=ORIENTED_EDGE($,*,*,#86,.T.);
#107=ORIENTED_EDGE($,*,*,#87,.T.);
#108=ORIENTED_EDGE($,*,*,#88,.T.);
#109=ORIENTED_EDGE($,*,*,#89,.T.);
#110=ORIENTED_EDGE($,*,*,#86,.F.);
#111=ORIENTED_EDGE($,*,*,#90,.T.);
#112=ORIENTED_EDGE($,*,*,#91,.F.);
#113=ORIENTED_EDGE($,*,*,#92,.T.);
#114=ORIENTED_EDGE($,*,*,#93,.T.);
#115=ORIENTED_EDGE($,*,*,#94,.F.);
#116=ORIENTED_EDGE($,*,*,#89,.F.);
#117=ORIENTED_EDGE($,*,*,#95,.F.);
#118=ORIENTED_EDGE($,*,*,#96,.F.);
#119=ORIENTED_EDGE($,*,*,#90,.F.);
#120=ORIENTED_EDGE($,*,*,#91,.T.);
#121=ORIENTED_EDGE($,*,*,#96,.T.);
#122=ORIENTED_EDGE($,*,*,#97,.T.);
#123=ORIENTED_EDGE($,*,*,#98,.T.);
#124=ORIENTED_EDGE($,*,*,#98,.F.);
#125=ORIENTED_EDGE($,*,*,#99,.T.);
#126=ORIENTED_EDGE($,*,*,#100,.T.);
#127=ORIENTED_EDGE($,*,*,#92,.F.);
#128=ORIENTED_EDGE($,*,*,#101,.F.);
#129=ORIENTED_EDGE($,*,*,#102,.F.);
#130=ORIENTED_EDGE($,*,*,#103,.F.);
#131=ORIENTED_EDGE($,*,*,#93,.F.);
#132=ORIENTED_EDGE($,*,*,#100,.F.);
#133=ORIENTED_EDGE($,*,*,#104,.F.);
#134=ORIENTED_EDGE($,*,*,#102,.T.);
#135=ORIENTED_EDGE($,*,*,#99,.F.);
#136=ORIENTED_EDGE($,*,*,#97,.F.);
#137=ORIENTED_EDGE($,*,*,#95,.T.);
#138=ORIENTED_EDGE($,*,*,#88,.F.);
#139=ORIENTED_EDGE($,*,*,#87,.F.);
#140=ORIENTED_EDGE($,*,*,#94,.T.);
#141=ORIENTED_EDGE($,*,*,#103,.T.);
#142=ORIENTED_EDGE($,*,*,#104,.T.);
#143=ORIENTED_EDGE($,*,*,#105,.F.);
#144=ORIENTED_EDGE($,*,*,#101,.T.);
#145=ORIENTED_EDGE($,*,*,#105,.T.);
#146=CYLINDRICAL_SURFACE($,#162,0.2);
#147=CYLINDRICAL_SURFACE($,#170,0.2);
#148=CYLINDRICAL_SURFACE($,#172,11.6);
#149=CYLINDRICAL_SURFACE($,#178,13.775);
#150=ADVANCED_FACE($,(#22),#146,.T.);
#151=ADVANCED_FACE($,(#23),#17,.F.);
#152=ADVANCED_FACE($,(#24),#18,.F.);
#153=ADVANCED_FACE($,(#25),#147,.T.);
#154=ADVANCED_FACE($,(#26,#13),#148,.F.);
#155=ADVANCED_FACE($,(#27),#19,.F.);
#156=ADVANCED_FACE($,(#28),#20,.T.);
#157=ADVANCED_FACE($,(#29,#14),#149,.T.);
#158=ADVANCED_FACE($,(#15,#16),#21,.T.);
#159=CLOSED_SHELL($,(#150,#151,#152,#153,#154,#155,#156,#157,#158));
#160=MANIFOLD_SOLID_BREP('Solid1',#159);
#161=AXIS2_PLACEMENT_3D('placement',#231,#181,#182);
#162=AXIS2_PLACEMENT_3D($,#232,#183,#184);
#163=AXIS2_PLACEMENT_3D($,#235,#185,#186);
#164=AXIS2_PLACEMENT_3D($,#239,#188,#189);
#165=AXIS2_PLACEMENT_3D($,#241,#191,#192);
#166=AXIS2_PLACEMENT_3D($,#245,#194,#195);
#167=AXIS2_PLACEMENT_3D($,#247,#196,#197);
#168=AXIS2_PLACEMENT_3D($,#250,#199,#200);
#169=AXIS2_PLACEMENT_3D($,#251,#201,#202);
#170=AXIS2_PLACEMENT_3D($,#255,#205,#206);
#171=AXIS2_PLACEMENT_3D($,#257,#207,#208);
#172=AXIS2_PLACEMENT_3D($,#259,#210,#211);
#173=AXIS2_PLACEMENT_3D($,#261,#212,#213);
#174=AXIS2_PLACEMENT_3D($,#264,#215,#216);
#175=AXIS2_PLACEMENT_3D($,#265,#217,#218);
#176=AXIS2_PLACEMENT_3D($,#269,#221,#222);
#177=AXIS2_PLACEMENT_3D($,#270,#223,#224);
#178=AXIS2_PLACEMENT_3D($,#271,#225,#226);
#179=AXIS2_PLACEMENT_3D($,#273,#227,#228);
#180=AXIS2_PLACEMENT_3D($,#274,#229,#230);
#181=DIRECTION('axis',(0.,0.,1.));
#182=DIRECTION('refdir',(1.,0.,0.));
#183=DIRECTION('center_axis',(0.,0.,1.));
#184=DIRECTION('ref_axis',(0.223146906173082,0.974784826649134,0.));
#185=DIRECTION('center_axis',(0.,0.,-1.));
#186=DIRECTION('ref_axis',(0.223146906173082,0.974784826649134,0.));
#187=DIRECTION($,(0.,0.,-1.));
#188=DIRECTION('center_axis',(4.66144837940484E-031,2.02506274198252E-030,
-1.));
#189=DIRECTION('ref_axis',(0.223146906173082,0.974784826649134,0.));
#190=DIRECTION($,(0.,0.,1.));
#191=DIRECTION('center_axis',(0.,0.,-1.));
#192=DIRECTION('ref_axis',(-1.,0.,0.));
#193=DIRECTION($,(-0.981627183447664,-0.190808995376545,0.));
#194=DIRECTION('center_axis',(0.,0.,-1.));
#195=DIRECTION('ref_axis',(-0.988518922713079,0.151097119225264,0.));
#196=DIRECTION('center_axis',(0.,0.,-1.));
#197=DIRECTION('ref_axis',(-1.,0.,0.));
#198=DIRECTION($,(0.,1.,0.));
#199=DIRECTION('center_axis',(0.,0.,-1.));
#200=DIRECTION('ref_axis',(-1.,0.,0.));
#201=DIRECTION('center_axis',(0.190808995376545,-0.981627183447664,0.));
#202=DIRECTION('ref_axis',(0.,0.,-1.));
#203=DIRECTION($,(0.981627183447664,0.190808995376545,0.));
#204=DIRECTION($,(0.,0.,-1.));
#205=DIRECTION('center_axis',(0.,0.,-1.));
#206=DIRECTION('ref_axis',(-0.988518922713079,0.151097119225264,0.));
#207=DIRECTION('center_axis',(4.66144837940484E-031,2.02506274198252E-030,
-1.));
#208=DIRECTION('ref_axis',(-0.988518922713079,0.151097119225264,0.));
#209=DIRECTION($,(0.,0.,1.));
#210=DIRECTION('center_axis',(0.,0.,1.));
#211=DIRECTION('ref_axis',(-1.,0.,0.));
#212=DIRECTION('center_axis',(-4.66144837940484E-031,-2.02506274198252E-030,
1.));
#213=DIRECTION('ref_axis',(-1.,0.,0.));
#214=DIRECTION($,(0.,0.,1.));
#215=DIRECTION('center_axis',(0.,0.,1.));
#216=DIRECTION('ref_axis',(-1.,0.,0.));
#217=DIRECTION('center_axis',(-1.,0.,0.));
#218=DIRECTION('ref_axis',(0.,0.,1.));
#219=DIRECTION($,(0.,-1.,0.));
#220=DIRECTION($,(0.,0.,-1.));
#221=DIRECTION('center_axis',(-4.66144837940484E-031,-2.02506274198252E-030,
1.));
#222=DIRECTION('ref_axis',(1.,0.,0.));
#223=DIRECTION('center_axis',(4.66144837940484E-031,2.02506274198252E-030,
-1.));
#224=DIRECTION('ref_axis',(-1.,0.,0.));
#225=DIRECTION('center_axis',(0.,0.,1.));
#226=DIRECTION('ref_axis',(-1.,0.,0.));
#227=DIRECTION('center_axis',(0.,0.,-1.));
#228=DIRECTION('ref_axis',(-1.,0.,0.));
#229=DIRECTION('center_axis',(0.,0.,-1.));
#230=DIRECTION('ref_axis',(-1.,0.,0.));
#231=CARTESIAN_POINT('',(0.,0.,0.));
#232=CARTESIAN_POINT('Origin',(8.12944333207541,10.8716501098304,0.));
#233=CARTESIAN_POINT('',(8.0912815330001,11.0679755465199,1.04));
#234=CARTESIAN_POINT('',(8.24921413623122,11.0318217504909,1.04));
#235=CARTESIAN_POINT('Origin',(8.12944333207541,10.8716501098304,1.04));
#236=CARTESIAN_POINT('',(8.24921413623122,11.0318217504909,0.44));
#237=CARTESIAN_POINT($,(8.24921413623122,11.0318217504909,0.));
#238=CARTESIAN_POINT('',(8.0912815330001,11.0679755465199,0.44));
#239=CARTESIAN_POINT('Origin',(8.12944333207541,10.8716501098304,0.44));
#240=CARTESIAN_POINT($,(8.0912815330001,11.0679755465199,0.));
#241=CARTESIAN_POINT('Origin',(0.,0.,1.04));
#242=CARTESIAN_POINT('',(5.57076566122986,10.5780368921787,1.04));
#243=CARTESIAN_POINT($,(1.61075982933889,9.80828973438854,1.04));
#244=CARTESIAN_POINT('',(5.51386089318135,10.2057502443792,1.04));
#245=CARTESIAN_POINT('Origin',(5.60892746030517,10.3817114554891,1.04));
#246=CARTESIAN_POINT('',(0.,11.6,1.04));
#247=CARTESIAN_POINT('Origin',(0.,0.,1.04));
#248=CARTESIAN_POINT('',(0.,13.775,1.04));
#249=CARTESIAN_POINT($,(0.,6.8875,1.04));
#250=CARTESIAN_POINT('Origin',(0.,0.,1.04));
#251=CARTESIAN_POINT('Origin',(5.,10.4670912865036,1.04));
#252=CARTESIAN_POINT('',(5.57076566122986,10.5780368921787,0.44));
#253=CARTESIAN_POINT($,(5.,10.4670912865036,0.44));
#254=CARTESIAN_POINT($,(5.57076566122986,10.5780368921787,0.));
#255=CARTESIAN_POINT('Origin',(5.60892746030517,10.3817114554891,0.));
#256=CARTESIAN_POINT('',(5.51386089318135,10.2057502443792,0.44));
#257=CARTESIAN_POINT('Origin',(5.60892746030517,10.3817114554891,0.44));
#258=CARTESIAN_POINT($,(5.51386089318135,10.2057502443792,0.));
#259=CARTESIAN_POINT('Origin',(0.,0.,0.));
#260=CARTESIAN_POINT('',(0.,11.6,0.44));
#261=CARTESIAN_POINT('Origin',(0.,0.,0.44));
#262=CARTESIAN_POINT($,(0.,11.6,0.));
#263=CARTESIAN_POINT('',(11.6,1.42059028701093E-015,0.));
#264=CARTESIAN_POINT('Origin',(0.,0.,0.));
#265=CARTESIAN_POINT('Origin',(0.,13.775,1.04));
#266=CARTESIAN_POINT('',(0.,13.775,0.44));
#267=CARTESIAN_POINT($,(0.,13.775,0.44));
#268=CARTESIAN_POINT($,(0.,13.775,0.));
#269=CARTESIAN_POINT('Origin',(3.6914211349644,12.0312518220935,0.44));
#270=CARTESIAN_POINT('Origin',(0.,0.,0.44));
#271=CARTESIAN_POINT('Origin',(0.,0.,0.));
#272=CARTESIAN_POINT('',(13.775,1.68695096582548E-015,0.));
#273=CARTESIAN_POINT('Origin',(0.,0.,0.));
#274=CARTESIAN_POINT('Origin',(0.,0.,0.));
#275=UNCERTAINTY_MEASURE_WITH_UNIT(LENGTH_MEASURE(0.01),#277,
'DISTANCE_ACCURACY_VALUE',
'Maximum model space distance between geometric entities at asserted c
onnectivities');
#276=(
GEOMETRIC_REPRESENTATION_CONTEXT(3)
GLOBAL_UNCERTAINTY_ASSIGNED_CONTEXT((#275))
GLOBAL_UNIT_ASSIGNED_CONTEXT((#277,#280,#278))
REPRESENTATION_CONTEXT('','3D')
);
#277=(
LENGTH_UNIT()
NAMED_UNIT(*)
SI_UNIT(.MILLI.,.METRE.)
);
#278=(
NAMED_UNIT(*)
SI_UNIT($,.STERADIAN.)
SOLID_ANGLE_UNIT()
);
#279=DIMENSIONAL_EXPONENTS(0.,0.,0.,0.,0.,0.,0.);
#280=(
CONVERSION_BASED_UNIT('degree',#282)
NAMED_UNIT(#279)
PLANE_ANGLE_UNIT()
);
#281=(
NAMED_UNIT(*)
PLANE_ANGLE_UNIT()
SI_UNIT($,.RADIAN.)
);
#282=PLANE_ANGLE_MEASURE_WITH_UNIT(PLANE_ANGLE_MEASURE(0.01745329252),#281);
#283=SHAPE_DEFINITION_REPRESENTATION(#284,#285);
#284=PRODUCT_DEFINITION_SHAPE('',$,#287);
#285=SHAPE_REPRESENTATION('',(#161),#276);
#286=PRODUCT_DEFINITION_CONTEXT('3D Mechanical Parts',#290,'design');
#287=PRODUCT_DEFINITION('DLSA','DLSA',#288,#286);
#288=PRODUCT_DEFINITION_FORMATION('',$,#292);
#289=APPLICATION_PROTOCOL_DEFINITION('international standard',
'automotive_design',2009,#290);
#290=APPLICATION_CONTEXT(
'Core Data for Automotive Mechanical Design Process');
#291=PRODUCT_CONTEXT('3D Mechanical Parts',#290,'mechanical');
#292=PRODUCT('DLSA','DLSA',$,(#291));
#293=PRESENTATION_STYLE_ASSIGNMENT((#294));
#294=SURFACE_STYLE_USAGE(.BOTH.,#295);
#295=SURFACE_SIDE_STYLE($,(#296));
#296=SURFACE_STYLE_FILL_AREA(#297);
#297=FILL_AREA_STYLE($,(#298));
#298=FILL_AREA_STYLE_COLOUR($,#299);
#299=COLOUR_RGB('',0.63921568627451,0.63921568627451,0.686274509803922);
ENDSEC;
END-ISO-10303-21;
