ISO-10303-21;
HEADER;
/* Generated by software containing ST-Developer
 * from STEP Tools, Inc. (www.steptools.com) 
 */

FILE_DESCRIPTION(
/* description */ (''),
/* implementation_level */ '2;1');

FILE_NAME(
/* name */ 
'W:\\Step files Subconn 11-11-2014\\Circular\\Dummy connector (DC)\\DC
M1M.stp',
/* time_stamp */ '2014-11-27T15:15:45+01:00',
/* author */ ('sh'),
/* organization */ (''),
/* preprocessor_version */ 'ST-DEVELOPER v15.2',
/* originating_system */ 'Autodesk Inventor 2014',
/* authorisation */ '');

FILE_SCHEMA (('AUTOMOTIVE_DESIGN { 1 0 10303 214 3 1 1 }'));
ENDSEC;

DATA;
#10=SHAPE_REPRESENTATION_RELATIONSHIP('SRR','None',#306,#11);
#11=ADVANCED_BREP_SHAPE_REPRESENTATION($,(#152),#297);
#12=SPHERICAL_SURFACE($,#164,2.5);
#13=(
BOUNDED_CURVE()
B_SPLINE_CURVE(2,(#270,#271,#272),.UNSPECIFIED.,.F.,.F.)
B_SPLINE_CURVE_WITH_KNOTS((3,3),(0.0310145161285985,0.896280701873018),
 .UNSPECIFIED.)
CURVE()
GEOMETRIC_REPRESENTATION_ITEM()
RATIONAL_B_SPLINE_CURVE((1.,0.907864940395864,1.))
REPRESENTATION_ITEM($)
);
#14=(
BOUNDED_SURFACE()
B_SPLINE_SURFACE(2,2,((#238,#239,#240,#241,#242,#243,#244,#245,#246),(#247,
#248,#249,#250,#251,#252,#253,#254,#255),(#256,#257,#258,#259,#260,#261,
#262,#263,#264)),.UNSPECIFIED.,.F.,.T.,.F.)
B_SPLINE_SURFACE_WITH_KNOTS((3,3),(3,2,2,2,3),(-0.896280701873018,-0.0310145161285985),
(-3.14159265358979,-1.5707963267949,0.,1.5707963267949,3.14159265358979),
 .UNSPECIFIED.)
GEOMETRIC_REPRESENTATION_ITEM()
RATIONAL_B_SPLINE_SURFACE(((1.,0.707106781186548,1.,0.707106781186548,1.,
0.707106781186548,1.,0.707106781186548,1.),(0.907864940395864,0.641957455755436,
0.907864940395864,0.641957455755436,0.907864940395864,0.641957455755436,
0.907864940395864,0.641957455755436,0.907864940395864),(1.,0.707106781186548,
1.,0.707106781186548,1.,0.707106781186548,1.,0.707106781186548,1.)))
REPRESENTATION_ITEM($)
SURFACE()
);
#15=PLANE($,#159);
#16=PLANE($,#173);
#17=PLANE($,#177);
#18=CYLINDRICAL_SURFACE($,#157,1.25);
#19=CYLINDRICAL_SURFACE($,#167,2.25);
#20=CYLINDRICAL_SURFACE($,#172,1.75);
#21=CYLINDRICAL_SURFACE($,#175,4.);
#22=FACE_BOUND($,#44,.T.);
#23=FACE_BOUND($,#46,.T.);
#24=FACE_BOUND($,#51,.T.);
#25=FACE_BOUND($,#53,.T.);
#26=FACE_BOUND($,#55,.T.);
#27=FACE_BOUND($,#57,.T.);
#28=FACE_BOUND($,#59,.T.);
#29=FACE_BOUND($,#61,.T.);
#30=FACE_BOUND($,#62,.T.);
#31=FACE_BOUND($,#63,.T.);
#32=FACE_OUTER_BOUND($,#43,.T.);
#33=FACE_OUTER_BOUND($,#45,.T.);
#34=FACE_OUTER_BOUND($,#47,.T.);
#35=FACE_OUTER_BOUND($,#48,.T.);
#36=FACE_OUTER_BOUND($,#49,.T.);
#37=FACE_OUTER_BOUND($,#50,.T.);
#38=FACE_OUTER_BOUND($,#52,.T.);
#39=FACE_OUTER_BOUND($,#54,.T.);
#40=FACE_OUTER_BOUND($,#56,.T.);
#41=FACE_OUTER_BOUND($,#58,.T.);
#42=FACE_OUTER_BOUND($,#60,.T.);
#43=EDGE_LOOP($,(#104));
#44=EDGE_LOOP($,(#105));
#45=EDGE_LOOP($,(#106));
#46=EDGE_LOOP($,(#107));
#47=EDGE_LOOP($,(#108));
#48=EDGE_LOOP($,(#109,#110,#111,#112,#113,#114));
#49=EDGE_LOOP($,(#115,#116));
#50=EDGE_LOOP($,(#117));
#51=EDGE_LOOP($,(#118));
#52=EDGE_LOOP($,(#119));
#53=EDGE_LOOP($,(#120));
#54=EDGE_LOOP($,(#121));
#55=EDGE_LOOP($,(#122));
#56=EDGE_LOOP($,(#123,#124));
#57=EDGE_LOOP($,(#125));
#58=EDGE_LOOP($,(#126));
#59=EDGE_LOOP($,(#127));
#60=EDGE_LOOP($,(#128));
#61=EDGE_LOOP($,(#129));
#62=EDGE_LOOP($,(#130));
#63=EDGE_LOOP($,(#131));
#64=CIRCLE($,#155,0.75);
#65=CIRCLE($,#156,1.25);
#66=CIRCLE($,#158,1.25);
#67=CIRCLE($,#160,2.5);
#68=CIRCLE($,#161,2.5);
#69=CIRCLE($,#162,1.75);
#70=CIRCLE($,#163,1.75);
#71=CIRCLE($,#166,2.25);
#72=CIRCLE($,#168,2.25);
#73=CIRCLE($,#170,1.75);
#74=CIRCLE($,#171,2.75);
#75=CIRCLE($,#174,4.);
#76=CIRCLE($,#176,4.);
#77=VERTEX_POINT($,#230);
#78=VERTEX_POINT($,#232);
#79=VERTEX_POINT($,#235);
#80=VERTEX_POINT($,#265);
#81=VERTEX_POINT($,#266);
#82=VERTEX_POINT($,#269);
#83=VERTEX_POINT($,#273);
#84=VERTEX_POINT($,#278);
#85=VERTEX_POINT($,#281);
#86=VERTEX_POINT($,#284);
#87=VERTEX_POINT($,#286);
#88=VERTEX_POINT($,#290);
#89=VERTEX_POINT($,#293);
#90=EDGE_CURVE($,#77,#77,#64,.T.);
#91=EDGE_CURVE($,#78,#78,#65,.T.);
#92=EDGE_CURVE($,#79,#79,#66,.T.);
#93=EDGE_CURVE($,#80,#81,#67,.T.);
#94=EDGE_CURVE($,#81,#80,#68,.T.);
#95=EDGE_CURVE($,#81,#82,#13,.T.);
#96=EDGE_CURVE($,#83,#82,#69,.T.);
#97=EDGE_CURVE($,#82,#83,#70,.T.);
#98=EDGE_CURVE($,#84,#84,#71,.T.);
#99=EDGE_CURVE($,#85,#85,#72,.T.);
#100=EDGE_CURVE($,#86,#86,#73,.T.);
#101=EDGE_CURVE($,#87,#87,#74,.T.);
#102=EDGE_CURVE($,#88,#88,#75,.T.);
#103=EDGE_CURVE($,#89,#89,#76,.T.);
#104=ORIENTED_EDGE($,*,*,#90,.T.);
#105=ORIENTED_EDGE($,*,*,#91,.T.);
#106=ORIENTED_EDGE($,*,*,#92,.F.);
#107=ORIENTED_EDGE($,*,*,#91,.F.);
#108=ORIENTED_EDGE($,*,*,#90,.F.);
#109=ORIENTED_EDGE($,*,*,#93,.F.);
#110=ORIENTED_EDGE($,*,*,#94,.F.);
#111=ORIENTED_EDGE($,*,*,#95,.T.);
#112=ORIENTED_EDGE($,*,*,#96,.F.);
#113=ORIENTED_EDGE($,*,*,#97,.F.);
#114=ORIENTED_EDGE($,*,*,#95,.F.);
#115=ORIENTED_EDGE($,*,*,#93,.T.);
#116=ORIENTED_EDGE($,*,*,#94,.T.);
#117=ORIENTED_EDGE($,*,*,#92,.T.);
#118=ORIENTED_EDGE($,*,*,#98,.T.);
#119=ORIENTED_EDGE($,*,*,#99,.F.);
#120=ORIENTED_EDGE($,*,*,#98,.F.);
#121=ORIENTED_EDGE($,*,*,#100,.T.);
#122=ORIENTED_EDGE($,*,*,#101,.T.);
#123=ORIENTED_EDGE($,*,*,#96,.T.);
#124=ORIENTED_EDGE($,*,*,#97,.T.);
#125=ORIENTED_EDGE($,*,*,#100,.F.);
#126=ORIENTED_EDGE($,*,*,#102,.T.);
#127=ORIENTED_EDGE($,*,*,#101,.F.);
#128=ORIENTED_EDGE($,*,*,#103,.T.);
#129=ORIENTED_EDGE($,*,*,#102,.F.);
#130=ORIENTED_EDGE($,*,*,#99,.T.);
#131=ORIENTED_EDGE($,*,*,#103,.F.);
#132=CONICAL_SURFACE($,#154,1.,45.0000000000001);
#133=CONICAL_SURFACE($,#165,1.75,45.);
#134=CONICAL_SURFACE($,#169,2.25,45.);
#135=STYLED_ITEM($,(#315),#139);
#136=STYLED_ITEM($,(#315),#140);
#137=STYLED_ITEM($,(#315),#141);
#138=STYLED_ITEM($,(#314),#152);
#139=ADVANCED_FACE($,(#32,#22),#132,.T.);
#140=ADVANCED_FACE($,(#33,#23),#18,.T.);
#141=ADVANCED_FACE($,(#34),#15,.F.);
#142=ADVANCED_FACE($,(#35),#14,.T.);
#143=ADVANCED_FACE($,(#36),#12,.T.);
#144=ADVANCED_FACE($,(#37,#24),#133,.T.);
#145=ADVANCED_FACE($,(#38,#25),#19,.T.);
#146=ADVANCED_FACE($,(#39,#26),#134,.T.);
#147=ADVANCED_FACE($,(#40,#27),#20,.T.);
#148=ADVANCED_FACE($,(#41,#28),#16,.T.);
#149=ADVANCED_FACE($,(#42,#29),#21,.T.);
#150=ADVANCED_FACE($,(#30,#31),#17,.F.);
#151=CLOSED_SHELL($,(#139,#140,#141,#142,#143,#144,#145,#146,#147,#148,
#149,#150));
#152=MANIFOLD_SOLID_BREP('Solid2',#151);
#153=AXIS2_PLACEMENT_3D('placement',#228,#178,#179);
#154=AXIS2_PLACEMENT_3D($,#229,#180,#181);
#155=AXIS2_PLACEMENT_3D($,#231,#182,#183);
#156=AXIS2_PLACEMENT_3D($,#233,#184,#185);
#157=AXIS2_PLACEMENT_3D($,#234,#186,#187);
#158=AXIS2_PLACEMENT_3D($,#236,#188,#189);
#159=AXIS2_PLACEMENT_3D($,#237,#190,#191);
#160=AXIS2_PLACEMENT_3D($,#267,#192,#193);
#161=AXIS2_PLACEMENT_3D($,#268,#194,#195);
#162=AXIS2_PLACEMENT_3D($,#274,#196,#197);
#163=AXIS2_PLACEMENT_3D($,#275,#198,#199);
#164=AXIS2_PLACEMENT_3D($,#276,#200,#201);
#165=AXIS2_PLACEMENT_3D($,#277,#202,#203);
#166=AXIS2_PLACEMENT_3D($,#279,#204,#205);
#167=AXIS2_PLACEMENT_3D($,#280,#206,#207);
#168=AXIS2_PLACEMENT_3D($,#282,#208,#209);
#169=AXIS2_PLACEMENT_3D($,#283,#210,#211);
#170=AXIS2_PLACEMENT_3D($,#285,#212,#213);
#171=AXIS2_PLACEMENT_3D($,#287,#214,#215);
#172=AXIS2_PLACEMENT_3D($,#288,#216,#217);
#173=AXIS2_PLACEMENT_3D($,#289,#218,#219);
#174=AXIS2_PLACEMENT_3D($,#291,#220,#221);
#175=AXIS2_PLACEMENT_3D($,#292,#222,#223);
#176=AXIS2_PLACEMENT_3D($,#294,#224,#225);
#177=AXIS2_PLACEMENT_3D($,#295,#226,#227);
#178=DIRECTION('axis',(0.,0.,1.));
#179=DIRECTION('refdir',(1.,0.,0.));
#180=DIRECTION('center_axis',(0.,0.,-1.));
#181=DIRECTION('ref_axis',(-1.,0.,0.));
#182=DIRECTION('center_axis',(0.,0.,-1.));
#183=DIRECTION('ref_axis',(-1.,0.,0.));
#184=DIRECTION('center_axis',(0.,0.,1.));
#185=DIRECTION('ref_axis',(-1.,0.,0.));
#186=DIRECTION('center_axis',(0.,0.,1.));
#187=DIRECTION('ref_axis',(-1.,0.,0.));
#188=DIRECTION('center_axis',(0.,0.,-1.));
#189=DIRECTION('ref_axis',(-1.,0.,0.));
#190=DIRECTION('center_axis',(0.,0.,-1.));
#191=DIRECTION('ref_axis',(-1.,0.,0.));
#192=DIRECTION('center_axis',(0.,0.,-1.));
#193=DIRECTION('ref_axis',(1.,0.,0.));
#194=DIRECTION('center_axis',(0.,0.,-1.));
#195=DIRECTION('ref_axis',(1.,0.,0.));
#196=DIRECTION('center_axis',(0.,0.,1.));
#197=DIRECTION('ref_axis',(1.,0.,0.));
#198=DIRECTION('center_axis',(0.,0.,1.));
#199=DIRECTION('ref_axis',(1.,0.,0.));
#200=DIRECTION('center_axis',(6.12323399573677E-017,0.,1.));
#201=DIRECTION('ref_axis',(1.,0.,0.));
#202=DIRECTION('center_axis',(0.,0.,-1.));
#203=DIRECTION('ref_axis',(-1.,0.,0.));
#204=DIRECTION('center_axis',(0.,0.,1.));
#205=DIRECTION('ref_axis',(-1.,0.,0.));
#206=DIRECTION('center_axis',(0.,0.,1.));
#207=DIRECTION('ref_axis',(-1.,0.,0.));
#208=DIRECTION('center_axis',(0.,0.,-1.));
#209=DIRECTION('ref_axis',(-1.,0.,0.));
#210=DIRECTION('center_axis',(0.,0.,1.));
#211=DIRECTION('ref_axis',(1.,0.,0.));
#212=DIRECTION('center_axis',(0.,0.,1.));
#213=DIRECTION('ref_axis',(1.,0.,0.));
#214=DIRECTION('center_axis',(0.,0.,-1.));
#215=DIRECTION('ref_axis',(1.,0.,0.));
#216=DIRECTION('center_axis',(0.,0.,-1.));
#217=DIRECTION('ref_axis',(1.,0.,0.));
#218=DIRECTION('center_axis',(0.,0.,-1.));
#219=DIRECTION('ref_axis',(-1.,0.,0.));
#220=DIRECTION('center_axis',(0.,0.,-1.));
#221=DIRECTION('ref_axis',(-1.,0.,0.));
#222=DIRECTION('center_axis',(0.,0.,1.));
#223=DIRECTION('ref_axis',(-1.,0.,0.));
#224=DIRECTION('center_axis',(0.,0.,-1.));
#225=DIRECTION('ref_axis',(-1.,0.,0.));
#226=DIRECTION('center_axis',(0.,0.,-1.));
#227=DIRECTION('ref_axis',(-1.,0.,0.));
#228=CARTESIAN_POINT('',(0.,0.,0.));
#229=CARTESIAN_POINT('Origin',(0.,0.,40.25));
#230=CARTESIAN_POINT('',(0.75,-9.18485099360515E-017,40.5));
#231=CARTESIAN_POINT('Origin',(0.,0.,40.5));
#232=CARTESIAN_POINT('',(1.25,1.53080849893419E-016,40.));
#233=CARTESIAN_POINT('Origin',(0.,0.,40.));
#234=CARTESIAN_POINT('Origin',(0.,0.,34.5));
#235=CARTESIAN_POINT('',(1.25,-1.53080849893419E-016,34.5));
#236=CARTESIAN_POINT('Origin',(0.,0.,34.5));
#237=CARTESIAN_POINT('Origin',(0.,0.,40.5));
#238=CARTESIAN_POINT('Ctrl Pts',(1.75,0.,-30.));
#239=CARTESIAN_POINT('Ctrl Pts',(1.75,1.75,-30.));
#240=CARTESIAN_POINT('Ctrl Pts',(0.,1.75,-30.));
#241=CARTESIAN_POINT('Ctrl Pts',(-1.75,1.75,-30.));
#242=CARTESIAN_POINT('Ctrl Pts',(-1.75,0.,-30.));
#243=CARTESIAN_POINT('Ctrl Pts',(-1.75,-1.75,-30.));
#244=CARTESIAN_POINT('Ctrl Pts',(0.,-1.75,-30.));
#245=CARTESIAN_POINT('Ctrl Pts',(1.75,-1.75,-30.));
#246=CARTESIAN_POINT('Ctrl Pts',(1.75,0.,-30.));
#247=CARTESIAN_POINT('Ctrl Pts',(2.47135885289148,0.,-30.5768205735543));
#248=CARTESIAN_POINT('Ctrl Pts',(2.47135885289148,2.47135885289148,-30.5768205735543));
#249=CARTESIAN_POINT('Ctrl Pts',(0.,2.47135885289148,-30.5768205735543));
#250=CARTESIAN_POINT('Ctrl Pts',(-2.47135885289148,2.47135885289148,-30.5768205735543));
#251=CARTESIAN_POINT('Ctrl Pts',(-2.47135885289148,0.,-30.5768205735543));
#252=CARTESIAN_POINT('Ctrl Pts',(-2.47135885289148,-2.47135885289148,-30.5768205735543));
#253=CARTESIAN_POINT('Ctrl Pts',(0.,-2.47135885289148,-30.5768205735543));
#254=CARTESIAN_POINT('Ctrl Pts',(2.47135885289148,-2.47135885289148,-30.5768205735543));
#255=CARTESIAN_POINT('Ctrl Pts',(2.47135885289148,0.,-30.5768205735543));
#256=CARTESIAN_POINT('Ctrl Pts',(2.5,0.,-31.5));
#257=CARTESIAN_POINT('Ctrl Pts',(2.5,2.5,-31.5));
#258=CARTESIAN_POINT('Ctrl Pts',(0.,2.5,-31.5));
#259=CARTESIAN_POINT('Ctrl Pts',(-2.5,2.5,-31.5));
#260=CARTESIAN_POINT('Ctrl Pts',(-2.5,0.,-31.5));
#261=CARTESIAN_POINT('Ctrl Pts',(-2.5,-2.5,-31.5));
#262=CARTESIAN_POINT('Ctrl Pts',(0.,-2.5,-31.5));
#263=CARTESIAN_POINT('Ctrl Pts',(2.5,-2.5,-31.5));
#264=CARTESIAN_POINT('Ctrl Pts',(2.5,0.,-31.5));
#265=CARTESIAN_POINT('',(-2.5,3.06161699786838E-016,-31.5));
#266=CARTESIAN_POINT('',(2.5,0.,-31.5));
#267=CARTESIAN_POINT('Origin',(0.,0.,-31.5));
#268=CARTESIAN_POINT('Origin',(0.,0.,-31.5));
#269=CARTESIAN_POINT('',(1.75,0.,-30.));
#270=CARTESIAN_POINT('Ctrl Pts',(2.5,0.,-31.5));
#271=CARTESIAN_POINT('Ctrl Pts',(2.47135885289148,0.,-30.5768205735543));
#272=CARTESIAN_POINT('Ctrl Pts',(1.75,0.,-30.));
#273=CARTESIAN_POINT('',(-1.75,2.14313189850787E-016,-30.));
#274=CARTESIAN_POINT('Origin',(0.,0.,-30.));
#275=CARTESIAN_POINT('Origin',(0.,0.,-30.));
#276=CARTESIAN_POINT('Origin',(0.,0.,-31.5));
#277=CARTESIAN_POINT('Origin',(0.,0.,34.));
#278=CARTESIAN_POINT('',(2.25,2.75545529808154E-016,33.5));
#279=CARTESIAN_POINT('Origin',(0.,0.,33.5));
#280=CARTESIAN_POINT('Origin',(0.,0.,22.));
#281=CARTESIAN_POINT('',(2.25,2.75545529808154E-016,22.));
#282=CARTESIAN_POINT('Origin',(0.,0.,22.));
#283=CARTESIAN_POINT('Origin',(0.,0.,-0.5));
#284=CARTESIAN_POINT('',(-1.75,-2.14313189850787E-016,-1.));
#285=CARTESIAN_POINT('Origin',(0.,0.,-1.));
#286=CARTESIAN_POINT('',(-2.75,3.36777869765522E-016,0.));
#287=CARTESIAN_POINT('Origin',(0.,0.,0.));
#288=CARTESIAN_POINT('Origin',(0.,0.,0.));
#289=CARTESIAN_POINT('Origin',(0.,0.,0.));
#290=CARTESIAN_POINT('',(4.,4.89858719658941E-016,0.));
#291=CARTESIAN_POINT('Origin',(0.,0.,0.));
#292=CARTESIAN_POINT('Origin',(0.,0.,0.));
#293=CARTESIAN_POINT('',(4.,4.89858719658941E-016,22.));
#294=CARTESIAN_POINT('Origin',(0.,0.,22.));
#295=CARTESIAN_POINT('Origin',(0.,0.,22.));
#296=UNCERTAINTY_MEASURE_WITH_UNIT(LENGTH_MEASURE(0.01),#298,
'DISTANCE_ACCURACY_VALUE',
'Maximum model space distance between geometric entities at asserted c
onnectivities');
#297=(
GEOMETRIC_REPRESENTATION_CONTEXT(3)
GLOBAL_UNCERTAINTY_ASSIGNED_CONTEXT((#296))
GLOBAL_UNIT_ASSIGNED_CONTEXT((#298,#301,#299))
REPRESENTATION_CONTEXT('','3D')
);
#298=(
LENGTH_UNIT()
NAMED_UNIT(*)
SI_UNIT(.MILLI.,.METRE.)
);
#299=(
NAMED_UNIT(*)
SI_UNIT($,.STERADIAN.)
SOLID_ANGLE_UNIT()
);
#300=DIMENSIONAL_EXPONENTS(0.,0.,0.,0.,0.,0.,0.);
#301=(
CONVERSION_BASED_UNIT('degree',#303)
NAMED_UNIT(#300)
PLANE_ANGLE_UNIT()
);
#302=(
NAMED_UNIT(*)
PLANE_ANGLE_UNIT()
SI_UNIT($,.RADIAN.)
);
#303=PLANE_ANGLE_MEASURE_WITH_UNIT(PLANE_ANGLE_MEASURE(0.01745329252),#302);
#304=SHAPE_DEFINITION_REPRESENTATION(#305,#306);
#305=PRODUCT_DEFINITION_SHAPE('',$,#308);
#306=SHAPE_REPRESENTATION('',(#153),#297);
#307=PRODUCT_DEFINITION_CONTEXT('3D Mechanical Parts',#311,'design');
#308=PRODUCT_DEFINITION('DCM1M','DCM1M',#309,#307);
#309=PRODUCT_DEFINITION_FORMATION('',$,#313);
#310=APPLICATION_PROTOCOL_DEFINITION('international standard',
'automotive_design',2009,#311);
#311=APPLICATION_CONTEXT(
'Core Data for Automotive Mechanical Design Process');
#312=PRODUCT_CONTEXT('3D Mechanical Parts',#311,'mechanical');
#313=PRODUCT('DCM1M','DCM1M',$,(#312));
#314=PRESENTATION_STYLE_ASSIGNMENT((#316));
#315=PRESENTATION_STYLE_ASSIGNMENT((#317));
#316=SURFACE_STYLE_USAGE(.BOTH.,#318);
#317=SURFACE_STYLE_USAGE(.BOTH.,#319);
#318=SURFACE_SIDE_STYLE($,(#320));
#319=SURFACE_SIDE_STYLE($,(#321));
#320=SURFACE_STYLE_FILL_AREA(#322);
#321=SURFACE_STYLE_FILL_AREA(#323);
#322=FILL_AREA_STYLE($,(#324));
#323=FILL_AREA_STYLE($,(#325));
#324=FILL_AREA_STYLE_COLOUR($,#326);
#325=FILL_AREA_STYLE_COLOUR($,#327);
#326=COLOUR_RGB('',0.309803921568627,0.309803921568627,0.309803921568627);
#327=COLOUR_RGB('',0.780392156862745,0.568627450980392,0.113725490196078);
ENDSEC;
END-ISO-10303-21;
