ISO-10303-21;
HEADER;
/* Generated by software containing ST-Developer
 * from STEP Tools, Inc. (www.steptools.com) 
 */

FILE_DESCRIPTION(
/* description */ (''),
/* implementation_level */ '2;1');

FILE_NAME(
/* name */ 
'W:\\Step files Subconn 11-11-2014\\Circular\\Dummy connector (DC)\\DC
M1F.stp',
/* time_stamp */ '2014-11-27T15:21:05+01:00',
/* author */ ('sh'),
/* organization */ (''),
/* preprocessor_version */ 'ST-DEVELOPER v15.2',
/* originating_system */ 'Autodesk Inventor 2014',
/* authorisation */ '');

FILE_SCHEMA (('AUTOMOTIVE_DESIGN { 1 0 10303 214 3 1 1 }'));
ENDSEC;

DATA;
#10=SHAPE_REPRESENTATION_RELATIONSHIP('SRR','None',#243,#11);
#11=ADVANCED_BREP_SHAPE_REPRESENTATION($,(#116),#234);
#12=STYLED_ITEM($,(#251),#116);
#13=CONICAL_SURFACE($,#127,2.25,45.);
#14=PLANE($,#126);
#15=PLANE($,#131);
#16=PLANE($,#135);
#17=FACE_BOUND($,#39,.T.);
#18=FACE_BOUND($,#42,.T.);
#19=FACE_BOUND($,#44,.T.);
#20=FACE_BOUND($,#46,.T.);
#21=FACE_BOUND($,#48,.T.);
#22=FACE_BOUND($,#49,.T.);
#23=FACE_BOUND($,#50,.T.);
#24=CYLINDRICAL_SURFACE($,#123,2.25);
#25=CYLINDRICAL_SURFACE($,#130,1.75);
#26=CYLINDRICAL_SURFACE($,#133,4.);
#27=SPHERICAL_SURFACE($,#122,2.5);
#28=FACE_OUTER_BOUND($,#36,.T.);
#29=FACE_OUTER_BOUND($,#37,.T.);
#30=FACE_OUTER_BOUND($,#38,.T.);
#31=FACE_OUTER_BOUND($,#40,.T.);
#32=FACE_OUTER_BOUND($,#41,.T.);
#33=FACE_OUTER_BOUND($,#43,.T.);
#34=FACE_OUTER_BOUND($,#45,.T.);
#35=FACE_OUTER_BOUND($,#47,.T.);
#36=EDGE_LOOP($,(#83,#84,#85,#86,#87,#88));
#37=EDGE_LOOP($,(#89,#90));
#38=EDGE_LOOP($,(#91));
#39=EDGE_LOOP($,(#92));
#40=EDGE_LOOP($,(#93));
#41=EDGE_LOOP($,(#94));
#42=EDGE_LOOP($,(#95));
#43=EDGE_LOOP($,(#96,#97));
#44=EDGE_LOOP($,(#98));
#45=EDGE_LOOP($,(#99));
#46=EDGE_LOOP($,(#100));
#47=EDGE_LOOP($,(#101));
#48=EDGE_LOOP($,(#102));
#49=EDGE_LOOP($,(#103));
#50=EDGE_LOOP($,(#104));
#51=(
BOUNDED_CURVE()
B_SPLINE_CURVE(2,(#207,#208,#209),.UNSPECIFIED.,.F.,.F.)
B_SPLINE_CURVE_WITH_KNOTS((3,3),(0.0310145161285985,0.896280701873018),
 .UNSPECIFIED.)
CURVE()
GEOMETRIC_REPRESENTATION_ITEM()
RATIONAL_B_SPLINE_CURVE((1.,0.907864940395864,1.))
REPRESENTATION_ITEM($)
);
#52=CIRCLE($,#118,2.5);
#53=CIRCLE($,#119,2.5);
#54=CIRCLE($,#120,1.75);
#55=CIRCLE($,#121,1.75);
#56=CIRCLE($,#124,2.25);
#57=CIRCLE($,#125,2.25);
#58=CIRCLE($,#128,1.75);
#59=CIRCLE($,#129,2.75);
#60=CIRCLE($,#132,4.);
#61=CIRCLE($,#134,4.);
#62=VERTEX_POINT($,#202);
#63=VERTEX_POINT($,#203);
#64=VERTEX_POINT($,#206);
#65=VERTEX_POINT($,#210);
#66=VERTEX_POINT($,#215);
#67=VERTEX_POINT($,#217);
#68=VERTEX_POINT($,#221);
#69=VERTEX_POINT($,#223);
#70=VERTEX_POINT($,#227);
#71=VERTEX_POINT($,#230);
#72=EDGE_CURVE($,#62,#63,#52,.T.);
#73=EDGE_CURVE($,#63,#62,#53,.T.);
#74=EDGE_CURVE($,#63,#64,#51,.T.);
#75=EDGE_CURVE($,#65,#64,#54,.T.);
#76=EDGE_CURVE($,#64,#65,#55,.T.);
#77=EDGE_CURVE($,#66,#66,#56,.T.);
#78=EDGE_CURVE($,#67,#67,#57,.T.);
#79=EDGE_CURVE($,#68,#68,#58,.T.);
#80=EDGE_CURVE($,#69,#69,#59,.T.);
#81=EDGE_CURVE($,#70,#70,#60,.T.);
#82=EDGE_CURVE($,#71,#71,#61,.T.);
#83=ORIENTED_EDGE($,*,*,#72,.F.);
#84=ORIENTED_EDGE($,*,*,#73,.F.);
#85=ORIENTED_EDGE($,*,*,#74,.T.);
#86=ORIENTED_EDGE($,*,*,#75,.F.);
#87=ORIENTED_EDGE($,*,*,#76,.F.);
#88=ORIENTED_EDGE($,*,*,#74,.F.);
#89=ORIENTED_EDGE($,*,*,#72,.T.);
#90=ORIENTED_EDGE($,*,*,#73,.T.);
#91=ORIENTED_EDGE($,*,*,#77,.F.);
#92=ORIENTED_EDGE($,*,*,#78,.F.);
#93=ORIENTED_EDGE($,*,*,#77,.T.);
#94=ORIENTED_EDGE($,*,*,#79,.T.);
#95=ORIENTED_EDGE($,*,*,#80,.T.);
#96=ORIENTED_EDGE($,*,*,#75,.T.);
#97=ORIENTED_EDGE($,*,*,#76,.T.);
#98=ORIENTED_EDGE($,*,*,#79,.F.);
#99=ORIENTED_EDGE($,*,*,#81,.T.);
#100=ORIENTED_EDGE($,*,*,#80,.F.);
#101=ORIENTED_EDGE($,*,*,#82,.T.);
#102=ORIENTED_EDGE($,*,*,#81,.F.);
#103=ORIENTED_EDGE($,*,*,#78,.T.);
#104=ORIENTED_EDGE($,*,*,#82,.F.);
#105=(
BOUNDED_SURFACE()
B_SPLINE_SURFACE(2,2,((#175,#176,#177,#178,#179,#180,#181,#182,#183),(#184,
#185,#186,#187,#188,#189,#190,#191,#192),(#193,#194,#195,#196,#197,#198,
#199,#200,#201)),.UNSPECIFIED.,.F.,.T.,.F.)
B_SPLINE_SURFACE_WITH_KNOTS((3,3),(3,2,2,2,3),(-0.896280701873018,-0.0310145161285985),
(-3.14159265358979,-1.5707963267949,0.,1.5707963267949,3.14159265358979),
 .UNSPECIFIED.)
GEOMETRIC_REPRESENTATION_ITEM()
RATIONAL_B_SPLINE_SURFACE(((1.,0.707106781186548,1.,0.707106781186548,1.,
0.707106781186548,1.,0.707106781186548,1.),(0.907864940395864,0.641957455755436,
0.907864940395864,0.641957455755436,0.907864940395864,0.641957455755436,
0.907864940395864,0.641957455755436,0.907864940395864),(1.,0.707106781186548,
1.,0.707106781186548,1.,0.707106781186548,1.,0.707106781186548,1.)))
REPRESENTATION_ITEM($)
SURFACE()
);
#106=ADVANCED_FACE($,(#28),#105,.T.);
#107=ADVANCED_FACE($,(#29),#27,.T.);
#108=ADVANCED_FACE($,(#30,#17),#24,.F.);
#109=ADVANCED_FACE($,(#31),#14,.F.);
#110=ADVANCED_FACE($,(#32,#18),#13,.T.);
#111=ADVANCED_FACE($,(#33,#19),#25,.T.);
#112=ADVANCED_FACE($,(#34,#20),#15,.T.);
#113=ADVANCED_FACE($,(#35,#21),#26,.T.);
#114=ADVANCED_FACE($,(#22,#23),#16,.F.);
#115=CLOSED_SHELL($,(#106,#107,#108,#109,#110,#111,#112,#113,#114));
#116=MANIFOLD_SOLID_BREP('Solid2',#115);
#117=AXIS2_PLACEMENT_3D('placement',#174,#136,#137);
#118=AXIS2_PLACEMENT_3D($,#204,#138,#139);
#119=AXIS2_PLACEMENT_3D($,#205,#140,#141);
#120=AXIS2_PLACEMENT_3D($,#211,#142,#143);
#121=AXIS2_PLACEMENT_3D($,#212,#144,#145);
#122=AXIS2_PLACEMENT_3D($,#213,#146,#147);
#123=AXIS2_PLACEMENT_3D($,#214,#148,#149);
#124=AXIS2_PLACEMENT_3D($,#216,#150,#151);
#125=AXIS2_PLACEMENT_3D($,#218,#152,#153);
#126=AXIS2_PLACEMENT_3D($,#219,#154,#155);
#127=AXIS2_PLACEMENT_3D($,#220,#156,#157);
#128=AXIS2_PLACEMENT_3D($,#222,#158,#159);
#129=AXIS2_PLACEMENT_3D($,#224,#160,#161);
#130=AXIS2_PLACEMENT_3D($,#225,#162,#163);
#131=AXIS2_PLACEMENT_3D($,#226,#164,#165);
#132=AXIS2_PLACEMENT_3D($,#228,#166,#167);
#133=AXIS2_PLACEMENT_3D($,#229,#168,#169);
#134=AXIS2_PLACEMENT_3D($,#231,#170,#171);
#135=AXIS2_PLACEMENT_3D($,#232,#172,#173);
#136=DIRECTION('axis',(0.,0.,1.));
#137=DIRECTION('refdir',(1.,0.,0.));
#138=DIRECTION('center_axis',(0.,0.,-1.));
#139=DIRECTION('ref_axis',(1.,0.,0.));
#140=DIRECTION('center_axis',(0.,0.,-1.));
#141=DIRECTION('ref_axis',(1.,0.,0.));
#142=DIRECTION('center_axis',(0.,0.,1.));
#143=DIRECTION('ref_axis',(1.,0.,0.));
#144=DIRECTION('center_axis',(0.,0.,1.));
#145=DIRECTION('ref_axis',(1.,0.,0.));
#146=DIRECTION('center_axis',(6.12323399573677E-017,0.,1.));
#147=DIRECTION('ref_axis',(1.,0.,0.));
#148=DIRECTION('center_axis',(0.,0.,-1.));
#149=DIRECTION('ref_axis',(-1.,0.,0.));
#150=DIRECTION('center_axis',(0.,0.,1.));
#151=DIRECTION('ref_axis',(-1.,0.,0.));
#152=DIRECTION('center_axis',(0.,0.,-1.));
#153=DIRECTION('ref_axis',(-1.,0.,0.));
#154=DIRECTION('center_axis',(0.,0.,-1.));
#155=DIRECTION('ref_axis',(-1.,0.,0.));
#156=DIRECTION('center_axis',(0.,0.,1.));
#157=DIRECTION('ref_axis',(1.,0.,0.));
#158=DIRECTION('center_axis',(0.,0.,1.));
#159=DIRECTION('ref_axis',(1.,0.,0.));
#160=DIRECTION('center_axis',(0.,0.,-1.));
#161=DIRECTION('ref_axis',(1.,0.,0.));
#162=DIRECTION('center_axis',(0.,0.,-1.));
#163=DIRECTION('ref_axis',(1.,0.,0.));
#164=DIRECTION('center_axis',(0.,0.,-1.));
#165=DIRECTION('ref_axis',(-1.,0.,0.));
#166=DIRECTION('center_axis',(0.,0.,-1.));
#167=DIRECTION('ref_axis',(-1.,0.,0.));
#168=DIRECTION('center_axis',(0.,0.,1.));
#169=DIRECTION('ref_axis',(-1.,0.,0.));
#170=DIRECTION('center_axis',(0.,0.,-1.));
#171=DIRECTION('ref_axis',(-1.,0.,0.));
#172=DIRECTION('center_axis',(0.,0.,-1.));
#173=DIRECTION('ref_axis',(-1.,0.,0.));
#174=CARTESIAN_POINT('',(0.,0.,0.));
#175=CARTESIAN_POINT('Ctrl Pts',(1.75,0.,-30.));
#176=CARTESIAN_POINT('Ctrl Pts',(1.75,1.75,-30.));
#177=CARTESIAN_POINT('Ctrl Pts',(0.,1.75,-30.));
#178=CARTESIAN_POINT('Ctrl Pts',(-1.75,1.75,-30.));
#179=CARTESIAN_POINT('Ctrl Pts',(-1.75,0.,-30.));
#180=CARTESIAN_POINT('Ctrl Pts',(-1.75,-1.75,-30.));
#181=CARTESIAN_POINT('Ctrl Pts',(0.,-1.75,-30.));
#182=CARTESIAN_POINT('Ctrl Pts',(1.75,-1.75,-30.));
#183=CARTESIAN_POINT('Ctrl Pts',(1.75,0.,-30.));
#184=CARTESIAN_POINT('Ctrl Pts',(2.47135885289148,0.,-30.5768205735543));
#185=CARTESIAN_POINT('Ctrl Pts',(2.47135885289148,2.47135885289148,-30.5768205735543));
#186=CARTESIAN_POINT('Ctrl Pts',(0.,2.47135885289148,-30.5768205735543));
#187=CARTESIAN_POINT('Ctrl Pts',(-2.47135885289148,2.47135885289148,-30.5768205735543));
#188=CARTESIAN_POINT('Ctrl Pts',(-2.47135885289148,0.,-30.5768205735543));
#189=CARTESIAN_POINT('Ctrl Pts',(-2.47135885289148,-2.47135885289148,-30.5768205735543));
#190=CARTESIAN_POINT('Ctrl Pts',(0.,-2.47135885289148,-30.5768205735543));
#191=CARTESIAN_POINT('Ctrl Pts',(2.47135885289148,-2.47135885289148,-30.5768205735543));
#192=CARTESIAN_POINT('Ctrl Pts',(2.47135885289148,0.,-30.5768205735543));
#193=CARTESIAN_POINT('Ctrl Pts',(2.5,0.,-31.5));
#194=CARTESIAN_POINT('Ctrl Pts',(2.5,2.5,-31.5));
#195=CARTESIAN_POINT('Ctrl Pts',(0.,2.5,-31.5));
#196=CARTESIAN_POINT('Ctrl Pts',(-2.5,2.5,-31.5));
#197=CARTESIAN_POINT('Ctrl Pts',(-2.5,0.,-31.5));
#198=CARTESIAN_POINT('Ctrl Pts',(-2.5,-2.5,-31.5));
#199=CARTESIAN_POINT('Ctrl Pts',(0.,-2.5,-31.5));
#200=CARTESIAN_POINT('Ctrl Pts',(2.5,-2.5,-31.5));
#201=CARTESIAN_POINT('Ctrl Pts',(2.5,0.,-31.5));
#202=CARTESIAN_POINT('',(-2.5,3.06161699786838E-016,-31.5));
#203=CARTESIAN_POINT('',(2.5,0.,-31.5));
#204=CARTESIAN_POINT('Origin',(0.,0.,-31.5));
#205=CARTESIAN_POINT('Origin',(0.,0.,-31.5));
#206=CARTESIAN_POINT('',(1.75,0.,-30.));
#207=CARTESIAN_POINT('Ctrl Pts',(2.5,0.,-31.5));
#208=CARTESIAN_POINT('Ctrl Pts',(2.47135885289148,0.,-30.5768205735543));
#209=CARTESIAN_POINT('Ctrl Pts',(1.75,0.,-30.));
#210=CARTESIAN_POINT('',(-1.75,2.14313189850787E-016,-30.));
#211=CARTESIAN_POINT('Origin',(0.,0.,-30.));
#212=CARTESIAN_POINT('Origin',(0.,0.,-30.));
#213=CARTESIAN_POINT('Origin',(0.,0.,-31.5));
#214=CARTESIAN_POINT('Origin',(0.,0.,38.));
#215=CARTESIAN_POINT('',(2.25,2.75545529808154E-016,19.));
#216=CARTESIAN_POINT('Origin',(0.,0.,19.));
#217=CARTESIAN_POINT('',(2.25,2.75545529808154E-016,38.));
#218=CARTESIAN_POINT('Origin',(0.,0.,38.));
#219=CARTESIAN_POINT('Origin',(0.,0.,19.));
#220=CARTESIAN_POINT('Origin',(0.,0.,-0.5));
#221=CARTESIAN_POINT('',(-1.75,-2.14313189850787E-016,-1.));
#222=CARTESIAN_POINT('Origin',(0.,0.,-1.));
#223=CARTESIAN_POINT('',(-2.75,3.36777869765522E-016,0.));
#224=CARTESIAN_POINT('Origin',(0.,0.,0.));
#225=CARTESIAN_POINT('Origin',(0.,0.,0.));
#226=CARTESIAN_POINT('Origin',(0.,0.,0.));
#227=CARTESIAN_POINT('',(4.,4.89858719658941E-016,0.));
#228=CARTESIAN_POINT('Origin',(0.,0.,0.));
#229=CARTESIAN_POINT('Origin',(0.,0.,0.));
#230=CARTESIAN_POINT('',(4.,4.89858719658941E-016,38.));
#231=CARTESIAN_POINT('Origin',(0.,0.,38.));
#232=CARTESIAN_POINT('Origin',(0.,0.,38.));
#233=UNCERTAINTY_MEASURE_WITH_UNIT(LENGTH_MEASURE(0.01),#235,
'DISTANCE_ACCURACY_VALUE',
'Maximum model space distance between geometric entities at asserted c
onnectivities');
#234=(
GEOMETRIC_REPRESENTATION_CONTEXT(3)
GLOBAL_UNCERTAINTY_ASSIGNED_CONTEXT((#233))
GLOBAL_UNIT_ASSIGNED_CONTEXT((#235,#238,#236))
REPRESENTATION_CONTEXT('','3D')
);
#235=(
LENGTH_UNIT()
NAMED_UNIT(*)
SI_UNIT(.MILLI.,.METRE.)
);
#236=(
NAMED_UNIT(*)
SI_UNIT($,.STERADIAN.)
SOLID_ANGLE_UNIT()
);
#237=DIMENSIONAL_EXPONENTS(0.,0.,0.,0.,0.,0.,0.);
#238=(
CONVERSION_BASED_UNIT('degree',#240)
NAMED_UNIT(#237)
PLANE_ANGLE_UNIT()
);
#239=(
NAMED_UNIT(*)
PLANE_ANGLE_UNIT()
SI_UNIT($,.RADIAN.)
);
#240=PLANE_ANGLE_MEASURE_WITH_UNIT(PLANE_ANGLE_MEASURE(0.01745329252),#239);
#241=SHAPE_DEFINITION_REPRESENTATION(#242,#243);
#242=PRODUCT_DEFINITION_SHAPE('',$,#245);
#243=SHAPE_REPRESENTATION('',(#117),#234);
#244=PRODUCT_DEFINITION_CONTEXT('3D Mechanical Parts',#248,'design');
#245=PRODUCT_DEFINITION('DCM1F','DCM1F',#246,#244);
#246=PRODUCT_DEFINITION_FORMATION('',$,#250);
#247=APPLICATION_PROTOCOL_DEFINITION('international standard',
'automotive_design',2009,#248);
#248=APPLICATION_CONTEXT(
'Core Data for Automotive Mechanical Design Process');
#249=PRODUCT_CONTEXT('3D Mechanical Parts',#248,'mechanical');
#250=PRODUCT('DCM1F','DCM1F',$,(#249));
#251=PRESENTATION_STYLE_ASSIGNMENT((#252));
#252=SURFACE_STYLE_USAGE(.BOTH.,#253);
#253=SURFACE_SIDE_STYLE($,(#254));
#254=SURFACE_STYLE_FILL_AREA(#255);
#255=FILL_AREA_STYLE($,(#256));
#256=FILL_AREA_STYLE_COLOUR($,#257);
#257=COLOUR_RGB('',0.309803921568627,0.309803921568627,0.309803921568627);
ENDSEC;
END-ISO-10303-21;
